0
SECTION
2
HEADER
9
$ACADVER
1
AC1009
9
$TEXTSTYLE
7
STANDARD
9
$CECOLOR
62
256
9
$AUNITS
70
0
9
$LUNITS
70
3
9
$EXTMIN
10
1.7750000
20
1.7750000
9
$EXTMAX
10
8.9925000
20
8.2250000
9
$FILLMODE
70
1
999
GUID = {505AC220-4558-11E2-B413-0004AC532488}
0
ENDSEC
0
SECTION
2
TABLES
0
TABLE
2
LAYER
70
1
0
LAYER
2
Bottom
70
64
62
2
6
CONTINUOUS
0
LAYER
2
Drill_Layer
70
64
62
100
6
CONTINUOUS
0
ENDTAB
0
ENDSEC
0
SECTION
2
BLOCKS
0
BLOCK
2
UNIT_DISC
8
0
70
0
10
0.0000000
20
0.0000000
0
POLYLINE
8
0
6
CONTINUOUS
66
1
70
1
40
0.5000000
41
0.5000000
0
VERTEX
8
0
10
0.2500000
20
0.0000000
42
1.0000000
0
VERTEX
8
0
10
-0.2500000
20
0.0000000
42
1.0000000
0
SEQEND
0
ENDBLK
0
BLOCK
2
UNIT_CIRCLE
8
0
70
0
10
0.0000000
20
0.0000000
0
CIRCLE
8
0
6
CONTINUOUS
10
0.0000000
20
0.0000000
40
0.5000000
0
ENDBLK
0
BLOCK
2
SHAPE_EL_260_260_0_0_0_0
8
0
70
0
10
0.0000000
20
0.0000000
0
INSERT
8
0
2
UNIT_DISC
10
0.0000000
20
0.0000000
41
0.0260000
42
0.0260000
43
0.0260000
50
0.0000000
0
ENDBLK
0
BLOCK
2
SHAPE_SQ_650_250_0_0_0_0
8
0
70
0
10
0.0000000
20
0.0000000
0
SOLID
8
0
10
-0.0325000
20
-0.0125000
11
0.0325000
21
-0.0125000
12
-0.0325000
22
0.0125000
13
0.0325000
23
0.0125000
0
ENDBLK
0
BLOCK
2
SHAPE_EL_2100_2100_0_0_0_0
8
0
70
0
10
0.0000000
20
0.0000000
0
INSERT
8
0
2
UNIT_DISC
10
0.0000000
20
0.0000000
41
0.2100000
42
0.2100000
43
0.2100000
50
0.0000000
0
ENDBLK
0
BLOCK
2
SHAPE_EL_1500_1500_0_0_0_0
8
0
70
0
10
0.0000000
20
0.0000000
0
INSERT
8
0
2
UNIT_DISC
10
0.0000000
20
0.0000000
41
0.1500000
42
0.1500000
43
0.1500000
50
0.0000000
0
ENDBLK
0
BLOCK
2
SHAPE_SQ_600_600_0_0_0_0
8
0
70
0
10
0.0000000
20
0.0000000
0
SOLID
8
0
10
-0.0300000
20
-0.0300000
11
0.0300000
21
-0.0300000
12
-0.0300000
22
0.0300000
13
0.0300000
23
0.0300000
0
ENDBLK
0
BLOCK
2
SHAPE_EL_1260_1260_0_0_0_0
8
0
70
0
10
0.0000000
20
0.0000000
0
INSERT
8
0
2
UNIT_DISC
10
0.0000000
20
0.0000000
41
0.1260000
42
0.1260000
43
0.1260000
50
0.0000000
0
ENDBLK
0
BLOCK
2
SHAPE_EL_650_650_0_0_0_0
8
0
70
0
10
0.0000000
20
0.0000000
0
INSERT
8
0
2
UNIT_DISC
10
0.0000000
20
0.0000000
41
0.0650000
42
0.0650000
43
0.0650000
50
0.0000000
0
ENDBLK
0
BLOCK
2
SHAPE_SQ_500_500_0_0_0_0
8
0
70
0
10
0.0000000
20
0.0000000
0
SOLID
8
0
10
-0.0250000
20
-0.0250000
11
0.0250000
21
-0.0250000
12
-0.0250000
22
0.0250000
13
0.0250000
23
0.0250000
0
ENDBLK
0
BLOCK
2
SHAPE_EL_350_350_0_0_0_0
8
0
70
0
10
0.0000000
20
0.0000000
0
INSERT
8
0
2
UNIT_DISC
10
0.0000000
20
0.0000000
41
0.0350000
42
0.0350000
43
0.0350000
50
0.0000000
0
ENDBLK
0
BLOCK
2
SHAPE_EL_630_630_0_0_0_0
8
0
70
0
10
0.0000000
20
0.0000000
0
INSERT
8
0
2
UNIT_DISC
10
0.0000000
20
0.0000000
41
0.0630000
42
0.0630000
43
0.0630000
50
0.0000000
0
ENDBLK
0
BLOCK
2
SHAPE_EL_2500_2500_0_0_0_0
8
0
70
0
10
0.0000000
20
0.0000000
0
INSERT
8
0
2
UNIT_DISC
10
0.0000000
20
0.0000000
41
0.2500000
42
0.2500000
43
0.2500000
50
0.0000000
0
ENDBLK
0
BLOCK
2
SHAPE_EL_400_400_0_0_0_0
8
0
70
0
10
0.0000000
20
0.0000000
0
INSERT
8
0
2
UNIT_DISC
10
0.0000000
20
0.0000000
41
0.0400000
42
0.0400000
43
0.0400000
50
0.0000000
0
ENDBLK
0
BLOCK
2
SHAPE_SQ_1000_1000_0_0_0_0
8
0
70
0
10
0.0000000
20
0.0000000
0
SOLID
8
0
10
-0.0500000
20
-0.0500000
11
0.0500000
21
-0.0500000
12
-0.0500000
22
0.0500000
13
0.0500000
23
0.0500000
0
ENDBLK
0
BLOCK
2
SHAPE_EL_200_200_0_0_0_0
8
0
70
0
10
0.0000000
20
0.0000000
0
INSERT
8
0
2
UNIT_DISC
10
0.0000000
20
0.0000000
41
0.0200000
42
0.0200000
43
0.0200000
50
0.0000000
0
ENDBLK
0
BLOCK
2
SHAPE_EL_150_150_0_0_0_0
8
0
70
0
10
0.0000000
20
0.0000000
0
INSERT
8
0
2
UNIT_DISC
10
0.0000000
20
0.0000000
41
0.0150000
42
0.0150000
43
0.0150000
50
0.0000000
0
ENDBLK
0
BLOCK
2
SHAPE_SQ_1000_500_0_0_0_0
8
0
70
0
10
0.0000000
20
0.0000000
0
SOLID
8
0
10
-0.0500000
20
-0.0250000
11
0.0500000
21
-0.0250000
12
-0.0500000
22
0.0250000
13
0.0500000
23
0.0250000
0
ENDBLK
0
BLOCK
2
P_SMASK1
8
0
70
0
10
0.0000000
20
0.0000000
0
ENDBLK
0
BLOCK
2
via261
8
0
70
0
10
0.0000000
20
0.0000000
0
INSERT
8
Bottom
2
SHAPE_EL_260_260_0_0_0_0
10
0.0000000
20
0.0000000
41
1.0000000
42
1.0000000
43
1.0000000
50
0.0000000
0
ENDBLK
0
BLOCK
2
P_R25X65D0T_F
8
0
70
0
10
0.0000000
20
0.0000000
0
INSERT
8
Bottom
2
SHAPE_SQ_650_250_0_0_0_0
10
0.0000000
20
0.0000000
41
1.0000000
42
1.0000000
43
1.0000000
50
0.0000000
0
ENDBLK
0
BLOCK
2
P_C210U__2_
8
0
70
0
10
0.0000000
20
0.0000000
0
INSERT
8
Bottom
2
SHAPE_EL_2100_2100_0_0_0_0
10
0.0000000
20
0.0000000
41
1.0000000
42
1.0000000
43
1.0000000
50
0.0000000
0
ENDBLK
0
BLOCK
2
P_C150D1251
8
0
70
0
10
0.0000000
20
0.0000000
0
INSERT
8
Bottom
2
SHAPE_EL_1500_1500_0_0_0_0
10
0.0000000
20
0.0000000
41
1.0000000
42
1.0000000
43
1.0000000
50
0.0000000
0
ENDBLK
0
BLOCK
2
P_S60D0T_F
8
0
70
0
10
0.0000000
20
0.0000000
0
INSERT
8
Bottom
2
SHAPE_SQ_600_600_0_0_0_0
10
0.0000000
20
0.0000000
41
1.0000000
42
1.0000000
43
1.0000000
50
0.0000000
0
ENDBLK
0
BLOCK
2
P_C126D126U__2_
8
0
70
0
10
0.0000000
20
0.0000000
0
INSERT
8
Bottom
2
SHAPE_EL_1260_1260_0_0_0_0
10
0.0000000
20
0.0000000
41
1.0000000
42
1.0000000
43
1.0000000
50
0.0000000
0
ENDBLK
0
BLOCK
2
P_C65U
8
0
70
0
10
0.0000000
20
0.0000000
0
INSERT
8
Bottom
2
SHAPE_EL_650_650_0_0_0_0
10
0.0000000
20
0.0000000
41
1.0000000
42
1.0000000
43
1.0000000
50
0.0000000
0
ENDBLK
0
BLOCK
2
P_S50D0T_F
8
0
70
0
10
0.0000000
20
0.0000000
0
INSERT
8
Bottom
2
SHAPE_SQ_500_500_0_0_0_0
10
0.0000000
20
0.0000000
41
1.0000000
42
1.0000000
43
1.0000000
50
0.0000000
0
ENDBLK
0
BLOCK
2
P_C126D126U
8
0
70
0
10
0.0000000
20
0.0000000
0
INSERT
8
Bottom
2
SHAPE_EL_1260_1260_0_0_0_0
10
0.0000000
20
0.0000000
41
1.0000000
42
1.0000000
43
1.0000000
50
0.0000000
0
ENDBLK
0
BLOCK
2
P_C35D25
8
0
70
0
10
0.0000000
20
0.0000000
0
INSERT
8
Bottom
2
SHAPE_EL_350_350_0_0_0_0
10
0.0000000
20
0.0000000
41
1.0000000
42
1.0000000
43
1.0000000
50
0.0000000
0
ENDBLK
0
BLOCK
2
via26
8
0
70
0
10
0.0000000
20
0.0000000
0
INSERT
8
Bottom
2
SHAPE_EL_260_260_0_0_0_0
10
0.0000000
20
0.0000000
41
1.0000000
42
1.0000000
43
1.0000000
50
0.0000000
0
ENDBLK
0
BLOCK
2
P_C1_55U__1_
8
0
70
0
10
0.0000000
20
0.0000000
0
INSERT
8
Bottom
2
SHAPE_EL_630_630_0_0_0_0
10
0.0000000
20
0.0000000
41
1.0000000
42
1.0000000
43
1.0000000
50
0.0000000
0
ENDBLK
0
BLOCK
2
P_C5_0D2_5__1_
8
0
70
0
10
0.0000000
20
0.0000000
0
INSERT
8
Bottom
2
SHAPE_EL_2500_2500_0_0_0_0
10
0.0000000
20
0.0000000
41
1.0000000
42
1.0000000
43
1.0000000
50
0.0000000
0
ENDBLK
0
BLOCK
2
P_C26D10
8
0
70
0
10
0.0000000
20
0.0000000
0
INSERT
8
Bottom
2
SHAPE_EL_260_260_0_0_0_0
10
0.0000000
20
0.0000000
41
1.0000000
42
1.0000000
43
1.0000000
50
0.0000000
0
ENDBLK
0
BLOCK
2
P_C40D0B
8
0
70
0
10
0.0000000
20
0.0000000
0
INSERT
8
Bottom
2
SHAPE_EL_400_400_0_0_0_0
10
0.0000000
20
0.0000000
41
1.0000000
42
1.0000000
43
1.0000000
50
0.0000000
0
ENDBLK
0
BLOCK
2
P_S100D0B
8
0
70
0
10
0.0000000
20
0.0000000
0
INSERT
8
Bottom
2
SHAPE_SQ_1000_1000_0_0_0_0
10
0.0000000
20
0.0000000
41
1.0000000
42
1.0000000
43
1.0000000
50
0.0000000
0
ENDBLK
0
BLOCK
2
P_S5D0T
8
0
70
0
10
0.0000000
20
0.0000000
0
ENDBLK
0
BLOCK
2
P_X1_92Y_34MM
8
0
70
0
10
0.0000000
20
0.0000000
0
ENDBLK
0
BLOCK
2
via20
8
0
70
0
10
0.0000000
20
0.0000000
0
INSERT
8
Bottom
2
SHAPE_EL_200_200_0_0_0_0
10
0.0000000
20
0.0000000
41
1.0000000
42
1.0000000
43
1.0000000
50
0.0000000
0
ENDBLK
0
BLOCK
2
P_C26D10__1_
8
0
70
0
10
0.0000000
20
0.0000000
0
INSERT
8
Bottom
2
SHAPE_EL_260_260_0_0_0_0
10
0.0000000
20
0.0000000
41
1.0000000
42
1.0000000
43
1.0000000
50
0.0000000
0
ENDBLK
0
BLOCK
2
P_C15D0B
8
0
70
0
10
0.0000000
20
0.0000000
0
INSERT
8
Bottom
2
SHAPE_EL_150_150_0_0_0_0
10
0.0000000
20
0.0000000
41
1.0000000
42
1.0000000
43
1.0000000
50
0.0000000
0
ENDBLK
0
BLOCK
2
P_C150D125
8
0
70
0
10
0.0000000
20
0.0000000
0
INSERT
8
Bottom
2
SHAPE_EL_1500_1500_0_0_0_0
10
0.0000000
20
0.0000000
41
1.0000000
42
1.0000000
43
1.0000000
50
0.0000000
0
ENDBLK
0
BLOCK
2
P_R50X100D0T
8
0
70
0
10
0.0000000
20
0.0000000
0
INSERT
8
Bottom
2
SHAPE_SQ_1000_500_0_0_0_0
10
0.0000000
20
0.0000000
41
1.0000000
42
1.0000000
43
1.0000000
50
0.0000000
0
ENDBLK
0
BLOCK
2
Cross
8
0
70
0
10
0.0000000
20
0.0000000
0
LINE
8
Drill_Layer
6
CONTINUOUS
10
0.0000000
20
-0.5000000
11
0.0000000
21
0.5000000
0
LINE
8
Drill_Layer
6
CONTINUOUS
10
-0.5000000
20
0.0000000
11
0.5000000
21
0.0000000
0
ENDBLK
0
BLOCK
2
X
8
0
70
0
10
0.0000000
20
0.0000000
0
LINE
8
Drill_Layer
6
CONTINUOUS
10
-0.5000000
20
0.5000000
11
0.5000000
21
-0.5000000
0
LINE
8
Drill_Layer
6
CONTINUOUS
10
0.5000000
20
0.5000000
11
-0.5000000
21
-0.5000000
0
ENDBLK
0
BLOCK
2
Y
8
0
70
0
10
0.0000000
20
0.0000000
0
LINE
8
Drill_Layer
6
CONTINUOUS
10
0.0000000
20
-0.5000000
11
0.0000000
21
0.0000000
0
LINE
8
Drill_Layer
6
CONTINUOUS
10
-0.5000000
20
0.5000000
11
0.0000000
21
0.0000000
0
LINE
8
Drill_Layer
6
CONTINUOUS
10
0.0000000
20
0.0000000
11
0.5000000
21
0.5000000
0
ENDBLK
0
BLOCK
2
T
8
0
70
0
10
0.0000000
20
0.0000000
0
LINE
8
Drill_Layer
6
CONTINUOUS
10
-0.5000000
20
0.0000000
11
0.5000000
21
0.0000000
0
LINE
8
Drill_Layer
6
CONTINUOUS
10
0.0000000
20
-0.5000000
11
0.0000000
21
0.0000000
0
ENDBLK
0
BLOCK
2
Hour
8
0
70
0
10
0.0000000
20
0.0000000
0
LINE
8
Drill_Layer
6
CONTINUOUS
10
-0.5000000
20
0.5000000
11
0.5000000
21
0.5000000
0
LINE
8
Drill_Layer
6
CONTINUOUS
10
0.5000000
20
-0.5000000
11
-0.5000000
21
-0.5000000
0
LINE
8
Drill_Layer
6
CONTINUOUS
10
-0.5000000
20
0.5000000
11
0.5000000
21
-0.5000000
0
LINE
8
Drill_Layer
6
CONTINUOUS
10
0.5000000
20
0.5000000
11
-0.5000000
21
-0.5000000
0
ENDBLK
0
BLOCK
2
Side_Hour
8
0
70
0
10
0.0000000
20
0.0000000
0
LINE
8
Drill_Layer
6
CONTINUOUS
10
0.5000000
20
0.5000000
11
0.5000000
21
-0.5000000
0
LINE
8
Drill_Layer
6
CONTINUOUS
10
-0.5000000
20
-0.5000000
11
-0.5000000
21
0.5000000
0
LINE
8
Drill_Layer
6
CONTINUOUS
10
-0.5000000
20
0.5000000
11
0.5000000
21
-0.5000000
0
LINE
8
Drill_Layer
6
CONTINUOUS
10
0.5000000
20
0.5000000
11
-0.5000000
21
-0.5000000
0
ENDBLK
0
BLOCK
2
UPPER_A
8
0
70
0
10
0.0000000
20
0.0000000
0
TEXT
8
Drill_Layer
10
-0.3375000
20
-0.6750000
40
0.9600000
1
A
50
0.0
7
STANDARD
71
0
72
0
0
ENDBLK
0
BLOCK
2
PTARGET_780
8
0
70
0
10
0.0000000
20
0.0000000
0
ENDBLK
0
BLOCK
2
PDS2401_808
8
0
70
0
10
0.0000000
20
0.0000000
0
ENDBLK
0
BLOCK
2
DIB16_823
8
0
70
0
10
0.0000000
20
0.0000000
0
ENDBLK
0
BLOCK
2
PDIGITAL30_869
8
0
70
0
10
0.0000000
20
0.0000000
0
ENDBLK
0
BLOCK
2
DUCOAX3_944
8
0
70
0
10
0.0000000
20
0.0000000
0
INSERT
8
Bottom
2
UNIT_DISC
10
2.3250000
20
4.8700000
41
0.0080000
42
0.0080000
43
0.0080000
50
0.0000000
0
INSERT
8
Bottom
2
UNIT_DISC
10
2.3600000
20
4.9050000
41
0.0080000
42
0.0080000
43
0.0080000
50
0.0000000
0
POLYLINE
8
Bottom
6
CONTINUOUS
66
1
70
0
40
0.0080000
41
0.0080000
0
VERTEX
8
Bottom
10
2.3250000
20
4.8700000
42
0.0000000
0
VERTEX
8
Bottom
10
2.3600000
20
4.9050000
42
0.0000000
0
SEQEND
0
INSERT
8
Bottom
2
UNIT_DISC
10
2.3250000
20
5.1300000
41
0.0080000
42
0.0080000
43
0.0080000
50
0.0000000
0
INSERT
8
Bottom
2
UNIT_DISC
10
2.3600000
20
5.1650000
41
0.0080000
42
0.0080000
43
0.0080000
50
0.0000000
0
POLYLINE
8
Bottom
6
CONTINUOUS
66
1
70
0
40
0.0080000
41
0.0080000
0
VERTEX
8
Bottom
10
2.3250000
20
5.1300000
42
0.0000000
0
VERTEX
8
Bottom
10
2.3600000
20
5.1650000
42
0.0000000
0
SEQEND
0
INSERT
8
Bottom
2
UNIT_DISC
10
2.2200000
20
5.0700000
41
0.0500000
42
0.0500000
43
0.0500000
50
0.0000000
0
INSERT
8
Bottom
2
UNIT_DISC
10
2.2200000
20
4.9300000
41
0.0500000
42
0.0500000
43
0.0500000
50
0.0000000
0
POLYLINE
8
Bottom
6
CONTINUOUS
66
1
70
0
40
0.0500000
41
0.0500000
0
VERTEX
8
Bottom
10
2.2200000
20
5.0700000
42
0.0000000
0
VERTEX
8
Bottom
10
2.2200000
20
4.9300000
42
0.0000000
0
SEQEND
0
ENDBLK
0
BLOCK
2
DUTPIN_1117
8
0
70
0
10
0.0000000
20
0.0000000
0
ENDBLK
0
BLOCK
2
DUTPIN_1112
8
0
70
0
10
0.0000000
20
0.0000000
0
ENDBLK
0
BLOCK
2
DUTPIN_1107
8
0
70
0
10
0.0000000
20
0.0000000
0
ENDBLK
0
BLOCK
2
DUTPIN_1102
8
0
70
0
10
0.0000000
20
0.0000000
0
ENDBLK
0
BLOCK
2
DUTPIN_1097
8
0
70
0
10
0.0000000
20
0.0000000
0
ENDBLK
0
BLOCK
2
DUTPIN_1092
8
0
70
0
10
0.0000000
20
0.0000000
0
ENDBLK
0
BLOCK
2
DUTPIN_1087
8
0
70
0
10
0.0000000
20
0.0000000
0
ENDBLK
0
BLOCK
2
DUTPIN_1082
8
0
70
0
10
0.0000000
20
0.0000000
0
ENDBLK
0
BLOCK
2
DUTPIN_1077
8
0
70
0
10
0.0000000
20
0.0000000
0
ENDBLK
0
BLOCK
2
DUTPIN_1072
8
0
70
0
10
0.0000000
20
0.0000000
0
ENDBLK
0
BLOCK
2
DUTPIN_1067
8
0
70
0
10
0.0000000
20
0.0000000
0
ENDBLK
0
BLOCK
2
DUTPIN_1062
8
0
70
0
10
0.0000000
20
0.0000000
0
ENDBLK
0
BLOCK
2
DUTPIN_1057
8
0
70
0
10
0.0000000
20
0.0000000
0
ENDBLK
0
BLOCK
2
DUTPIN_1052
8
0
70
0
10
0.0000000
20
0.0000000
0
ENDBLK
0
BLOCK
2
DUTPIN_1047
8
0
70
0
10
0.0000000
20
0.0000000
0
ENDBLK
0
BLOCK
2
DUTPIN_1042
8
0
70
0
10
0.0000000
20
0.0000000
0
ENDBLK
0
BLOCK
2
DUTPIN_1037
8
0
70
0
10
0.0000000
20
0.0000000
0
ENDBLK
0
BLOCK
2
DUTPIN_1032
8
0
70
0
10
0.0000000
20
0.0000000
0
ENDBLK
0
BLOCK
2
DUTPIN_1027
8
0
70
0
10
0.0000000
20
0.0000000
0
ENDBLK
0
BLOCK
2
DUTPIN_1022
8
0
70
0
10
0.0000000
20
0.0000000
0
ENDBLK
0
BLOCK
2
DUTPIN_1017
8
0
70
0
10
0.0000000
20
0.0000000
0
ENDBLK
0
BLOCK
2
DUTPIN_1122
8
0
70
0
10
0.0000000
20
0.0000000
0
ENDBLK
0
BLOCK
2
DUTPIN_1221
8
0
70
0
10
0.0000000
20
0.0000000
0
ENDBLK
0
BLOCK
2
DUTPIN_1216
8
0
70
0
10
0.0000000
20
0.0000000
0
ENDBLK
0
BLOCK
2
DUTPIN_1211
8
0
70
0
10
0.0000000
20
0.0000000
0
ENDBLK
0
BLOCK
2
DUTPIN_1144
8
0
70
0
10
0.0000000
20
0.0000000
0
ENDBLK
0
BLOCK
2
DUTPIN_1162
8
0
70
0
10
0.0000000
20
0.0000000
0
ENDBLK
0
BLOCK
2
DUTPIN_1167
8
0
70
0
10
0.0000000
20
0.0000000
0
ENDBLK
0
BLOCK
2
DUTPIN_1173
8
0
70
0
10
0.0000000
20
0.0000000
0
ENDBLK
0
BLOCK
2
DUTPIN_1179
8
0
70
0
10
0.0000000
20
0.0000000
0
ENDBLK
0
BLOCK
2
DUTPIN_1184
8
0
70
0
10
0.0000000
20
0.0000000
0
ENDBLK
0
BLOCK
2
DUTPIN_1190
8
0
70
0
10
0.0000000
20
0.0000000
0
ENDBLK
0
BLOCK
2
DUTPIN_1195
8
0
70
0
10
0.0000000
20
0.0000000
0
ENDBLK
0
BLOCK
2
DUTPIN_1200
8
0
70
0
10
0.0000000
20
0.0000000
0
ENDBLK
0
BLOCK
2
DUTPIN_1282
8
0
70
0
10
0.0000000
20
0.0000000
0
ENDBLK
0
BLOCK
2
DUTPIN_1277
8
0
70
0
10
0.0000000
20
0.0000000
0
ENDBLK
0
BLOCK
2
DUTPIN_1272
8
0
70
0
10
0.0000000
20
0.0000000
0
ENDBLK
0
BLOCK
2
DUTPIN_1267
8
0
70
0
10
0.0000000
20
0.0000000
0
ENDBLK
0
BLOCK
2
DUTPIN_1262
8
0
70
0
10
0.0000000
20
0.0000000
0
ENDBLK
0
BLOCK
2
DUTPIN_1257
8
0
70
0
10
0.0000000
20
0.0000000
0
ENDBLK
0
BLOCK
2
DUTPIN_1252
8
0
70
0
10
0.0000000
20
0.0000000
0
ENDBLK
0
BLOCK
2
DUTPIN_1247
8
0
70
0
10
0.0000000
20
0.0000000
0
ENDBLK
0
BLOCK
2
DUTPIN_1242
8
0
70
0
10
0.0000000
20
0.0000000
0
ENDBLK
0
BLOCK
2
DUTPIN_1237
8
0
70
0
10
0.0000000
20
0.0000000
0
ENDBLK
0
BLOCK
2
DUTPIN_1232
8
0
70
0
10
0.0000000
20
0.0000000
0
ENDBLK
0
BLOCK
2
DUTPIN_1227
8
0
70
0
10
0.0000000
20
0.0000000
0
ENDBLK
0
BLOCK
2
DUTPIN_1325
8
0
70
0
10
0.0000000
20
0.0000000
0
ENDBLK
0
BLOCK
2
DUTPIN_1320
8
0
70
0
10
0.0000000
20
0.0000000
0
ENDBLK
0
BLOCK
2
DUTPIN_1315
8
0
70
0
10
0.0000000
20
0.0000000
0
ENDBLK
0
BLOCK
2
DUTPIN_1310
8
0
70
0
10
0.0000000
20
0.0000000
0
ENDBLK
0
BLOCK
2
DUTPIN_1305
8
0
70
0
10
0.0000000
20
0.0000000
0
ENDBLK
0
BLOCK
2
DUTPIN_1300
8
0
70
0
10
0.0000000
20
0.0000000
0
ENDBLK
0
BLOCK
2
DUTPIN_1355
8
0
70
0
10
0.0000000
20
0.0000000
0
ENDBLK
0
BLOCK
2
DUTPIN_1360
8
0
70
0
10
0.0000000
20
0.0000000
0
ENDBLK
0
BLOCK
2
DUTPIN_1365
8
0
70
0
10
0.0000000
20
0.0000000
0
ENDBLK
0
BLOCK
2
DUTPIN_1370
8
0
70
0
10
0.0000000
20
0.0000000
0
ENDBLK
0
BLOCK
2
DUTPIN_1390
8
0
70
0
10
0.0000000
20
0.0000000
0
ENDBLK
0
BLOCK
2
DUTPIN_1395
8
0
70
0
10
0.0000000
20
0.0000000
0
ENDBLK
0
BLOCK
2
DUTPIN_1400
8
0
70
0
10
0.0000000
20
0.0000000
0
ENDBLK
0
BLOCK
2
DUTPIN_1405
8
0
70
0
10
0.0000000
20
0.0000000
0
ENDBLK
0
BLOCK
2
DUTPIN_1410
8
0
70
0
10
0.0000000
20
0.0000000
0
ENDBLK
0
BLOCK
2
DUTPIN_1415
8
0
70
0
10
0.0000000
20
0.0000000
0
ENDBLK
0
BLOCK
2
DUTPIN_1420
8
0
70
0
10
0.0000000
20
0.0000000
0
ENDBLK
0
BLOCK
2
DUTPIN_1425
8
0
70
0
10
0.0000000
20
0.0000000
0
ENDBLK
0
BLOCK
2
DUCOAX3_1468
8
0
70
0
10
0.0000000
20
0.0000000
0
INSERT
8
Bottom
2
UNIT_DISC
10
5.3500000
20
4.8700000
41
0.0080000
42
0.0080000
43
0.0080000
50
0.0000000
0
INSERT
8
Bottom
2
UNIT_DISC
10
5.3850000
20
4.9050000
41
0.0080000
42
0.0080000
43
0.0080000
50
0.0000000
0
POLYLINE
8
Bottom
6
CONTINUOUS
66
1
70
0
40
0.0080000
41
0.0080000
0
VERTEX
8
Bottom
10
5.3500000
20
4.8700000
42
0.0000000
0
VERTEX
8
Bottom
10
5.3850000
20
4.9050000
42
0.0000000
0
SEQEND
0
INSERT
8
Bottom
2
UNIT_DISC
10
5.3500000
20
5.1300000
41
0.0080000
42
0.0080000
43
0.0080000
50
0.0000000
0
INSERT
8
Bottom
2
UNIT_DISC
10
5.3850000
20
5.1650000
41
0.0080000
42
0.0080000
43
0.0080000
50
0.0000000
0
POLYLINE
8
Bottom
6
CONTINUOUS
66
1
70
0
40
0.0080000
41
0.0080000
0
VERTEX
8
Bottom
10
5.3500000
20
5.1300000
42
0.0000000
0
VERTEX
8
Bottom
10
5.3850000
20
5.1650000
42
0.0000000
0
SEQEND
0
INSERT
8
Bottom
2
UNIT_DISC
10
5.2450000
20
5.0700000
41
0.0500000
42
0.0500000
43
0.0500000
50
0.0000000
0
INSERT
8
Bottom
2
UNIT_DISC
10
5.2450000
20
4.9300000
41
0.0500000
42
0.0500000
43
0.0500000
50
0.0000000
0
POLYLINE
8
Bottom
6
CONTINUOUS
66
1
70
0
40
0.0500000
41
0.0500000
0
VERTEX
8
Bottom
10
5.2450000
20
5.0700000
42
0.0000000
0
VERTEX
8
Bottom
10
5.2450000
20
4.9300000
42
0.0000000
0
SEQEND
0
ENDBLK
0
BLOCK
2
DUCOAX3_1430
8
0
70
0
10
0.0000000
20
0.0000000
0
INSERT
8
Bottom
2
UNIT_DISC
10
4.6500000
20
5.1300000
41
0.0080000
42
0.0080000
43
0.0080000
50
0.0000000
0
INSERT
8
Bottom
2
UNIT_DISC
10
4.6150000
20
5.0950000
41
0.0080000
42
0.0080000
43
0.0080000
50
0.0000000
0
POLYLINE
8
Bottom
6
CONTINUOUS
66
1
70
0
40
0.0080000
41
0.0080000
0
VERTEX
8
Bottom
10
4.6500000
20
5.1300000
42
0.0000000
0
VERTEX
8
Bottom
10
4.6150000
20
5.0950000
42
0.0000000
0
SEQEND
0
INSERT
8
Bottom
2
UNIT_DISC
10
4.6500000
20
4.8700000
41
0.0080000
42
0.0080000
43
0.0080000
50
0.0000000
0
INSERT
8
Bottom
2
UNIT_DISC
10
4.6150000
20
4.8350000
41
0.0080000
42
0.0080000
43
0.0080000
50
0.0000000
0
POLYLINE
8
Bottom
6
CONTINUOUS
66
1
70
0
40
0.0080000
41
0.0080000
0
VERTEX
8
Bottom
10
4.6500000
20
4.8700000
42
0.0000000
0
VERTEX
8
Bottom
10
4.6150000
20
4.8350000
42
0.0000000
0
SEQEND
0
INSERT
8
Bottom
2
UNIT_DISC
10
4.7550000
20
4.9300000
41
0.0500000
42
0.0500000
43
0.0500000
50
0.0000000
0
INSERT
8
Bottom
2
UNIT_DISC
10
4.7550000
20
5.0700000
41
0.0500000
42
0.0500000
43
0.0500000
50
0.0000000
0
POLYLINE
8
Bottom
6
CONTINUOUS
66
1
70
0
40
0.0500000
41
0.0500000
0
VERTEX
8
Bottom
10
4.7550000
20
4.9300000
42
0.0000000
0
VERTEX
8
Bottom
10
4.7550000
20
5.0700000
42
0.0000000
0
SEQEND
0
ENDBLK
0
BLOCK
2
PDIB12_1551
8
0
70
0
10
0.0000000
20
0.0000000
0
ENDBLK
0
BLOCK
2
PDIB12_1520
8
0
70
0
10
0.0000000
20
0.0000000
0
ENDBLK
0
BLOCK
2
DUTPIN_1695
8
0
70
0
10
0.0000000
20
0.0000000
0
ENDBLK
0
BLOCK
2
DUTPIN_1690
8
0
70
0
10
0.0000000
20
0.0000000
0
ENDBLK
0
BLOCK
2
DUTPIN_1685
8
0
70
0
10
0.0000000
20
0.0000000
0
ENDBLK
0
BLOCK
2
DUTPIN_1680
8
0
70
0
10
0.0000000
20
0.0000000
0
ENDBLK
0
BLOCK
2
DUTPIN_1675
8
0
70
0
10
0.0000000
20
0.0000000
0
ENDBLK
0
BLOCK
2
DUTPIN_1670
8
0
70
0
10
0.0000000
20
0.0000000
0
ENDBLK
0
BLOCK
2
DUTPIN_1665
8
0
70
0
10
0.0000000
20
0.0000000
0
ENDBLK
0
BLOCK
2
DUTPIN_1660
8
0
70
0
10
0.0000000
20
0.0000000
0
ENDBLK
0
BLOCK
2
DUTPIN_1655
8
0
70
0
10
0.0000000
20
0.0000000
0
ENDBLK
0
BLOCK
2
DUTPIN_1650
8
0
70
0
10
0.0000000
20
0.0000000
0
ENDBLK
0
BLOCK
2
DUTPIN_1645
8
0
70
0
10
0.0000000
20
0.0000000
0
ENDBLK
0
BLOCK
2
DUTPIN_1639
8
0
70
0
10
0.0000000
20
0.0000000
0
ENDBLK
0
BLOCK
2
DUTPIN_1634
8
0
70
0
10
0.0000000
20
0.0000000
0
ENDBLK
0
BLOCK
2
DUTPIN_1629
8
0
70
0
10
0.0000000
20
0.0000000
0
ENDBLK
0
BLOCK
2
DUTPIN_1624
8
0
70
0
10
0.0000000
20
0.0000000
0
ENDBLK
0
BLOCK
2
DUTPIN_1619
8
0
70
0
10
0.0000000
20
0.0000000
0
ENDBLK
0
BLOCK
2
DUTPIN_1612
8
0
70
0
10
0.0000000
20
0.0000000
0
ENDBLK
0
BLOCK
2
DUTPIN_1743
8
0
70
0
10
0.0000000
20
0.0000000
0
ENDBLK
0
BLOCK
2
DUTPIN_1748
8
0
70
0
10
0.0000000
20
0.0000000
0
ENDBLK
0
BLOCK
2
DUTPIN_1753
8
0
70
0
10
0.0000000
20
0.0000000
0
ENDBLK
0
BLOCK
2
DUTPIN_1758
8
0
70
0
10
0.0000000
20
0.0000000
0
ENDBLK
0
BLOCK
2
DUTPIN_1763
8
0
70
0
10
0.0000000
20
0.0000000
0
ENDBLK
0
BLOCK
2
DUTPIN_1768
8
0
70
0
10
0.0000000
20
0.0000000
0
ENDBLK
0
BLOCK
2
DUTPIN_1773
8
0
70
0
10
0.0000000
20
0.0000000
0
ENDBLK
0
BLOCK
2
DUTPIN_1778
8
0
70
0
10
0.0000000
20
0.0000000
0
ENDBLK
0
BLOCK
2
DUTPIN_1783
8
0
70
0
10
0.0000000
20
0.0000000
0
ENDBLK
0
BLOCK
2
DUTPIN_1788
8
0
70
0
10
0.0000000
20
0.0000000
0
ENDBLK
0
BLOCK
2
DUTPIN_1793
8
0
70
0
10
0.0000000
20
0.0000000
0
ENDBLK
0
BLOCK
2
DUTPIN_1798
8
0
70
0
10
0.0000000
20
0.0000000
0
ENDBLK
0
BLOCK
2
DUTPIN_1803
8
0
70
0
10
0.0000000
20
0.0000000
0
ENDBLK
0
BLOCK
2
DUTPIN_1808
8
0
70
0
10
0.0000000
20
0.0000000
0
ENDBLK
0
BLOCK
2
DUTPIN_1813
8
0
70
0
10
0.0000000
20
0.0000000
0
ENDBLK
0
BLOCK
2
DUTPIN_1818
8
0
70
0
10
0.0000000
20
0.0000000
0
ENDBLK
0
BLOCK
2
DUTPIN_1823
8
0
70
0
10
0.0000000
20
0.0000000
0
ENDBLK
0
BLOCK
2
DUTPIN_1839
8
0
70
0
10
0.0000000
20
0.0000000
0
ENDBLK
0
BLOCK
2
DUTPIN_1844
8
0
70
0
10
0.0000000
20
0.0000000
0
ENDBLK
0
BLOCK
2
DUTPIN_1984
8
0
70
0
10
0.0000000
20
0.0000000
0
ENDBLK
0
BLOCK
2
DUTPIN_1979
8
0
70
0
10
0.0000000
20
0.0000000
0
ENDBLK
0
BLOCK
2
DUTPIN_1974
8
0
70
0
10
0.0000000
20
0.0000000
0
ENDBLK
0
BLOCK
2
DUTPIN_1969
8
0
70
0
10
0.0000000
20
0.0000000
0
ENDBLK
0
BLOCK
2
DUTPIN_1964
8
0
70
0
10
0.0000000
20
0.0000000
0
ENDBLK
0
BLOCK
2
DUTPIN_1959
8
0
70
0
10
0.0000000
20
0.0000000
0
ENDBLK
0
BLOCK
2
DUTPIN_1954
8
0
70
0
10
0.0000000
20
0.0000000
0
ENDBLK
0
BLOCK
2
DUTPIN_1949
8
0
70
0
10
0.0000000
20
0.0000000
0
ENDBLK
0
BLOCK
2
DUTPIN_1944
8
0
70
0
10
0.0000000
20
0.0000000
0
ENDBLK
0
BLOCK
2
DUTPIN_1939
8
0
70
0
10
0.0000000
20
0.0000000
0
ENDBLK
0
BLOCK
2
DUTPIN_1934
8
0
70
0
10
0.0000000
20
0.0000000
0
ENDBLK
0
BLOCK
2
DUTPIN_1929
8
0
70
0
10
0.0000000
20
0.0000000
0
ENDBLK
0
BLOCK
2
DUTPIN_1924
8
0
70
0
10
0.0000000
20
0.0000000
0
ENDBLK
0
BLOCK
2
DUTPIN_1919
8
0
70
0
10
0.0000000
20
0.0000000
0
ENDBLK
0
BLOCK
2
DUTPIN_1914
8
0
70
0
10
0.0000000
20
0.0000000
0
ENDBLK
0
BLOCK
2
DUTPIN_1909
8
0
70
0
10
0.0000000
20
0.0000000
0
ENDBLK
0
BLOCK
2
DUTPIN_1904
8
0
70
0
10
0.0000000
20
0.0000000
0
ENDBLK
0
BLOCK
2
DUTPIN_1899
8
0
70
0
10
0.0000000
20
0.0000000
0
ENDBLK
0
BLOCK
2
DUTPIN_1894
8
0
70
0
10
0.0000000
20
0.0000000
0
ENDBLK
0
BLOCK
2
DUTPIN_1889
8
0
70
0
10
0.0000000
20
0.0000000
0
ENDBLK
0
BLOCK
2
DUTPIN_1884
8
0
70
0
10
0.0000000
20
0.0000000
0
ENDBLK
0
BLOCK
2
DUTPIN_1879
8
0
70
0
10
0.0000000
20
0.0000000
0
ENDBLK
0
BLOCK
2
DUTPIN_1874
8
0
70
0
10
0.0000000
20
0.0000000
0
ENDBLK
0
BLOCK
2
DUTPIN_1869
8
0
70
0
10
0.0000000
20
0.0000000
0
ENDBLK
0
BLOCK
2
DUTPIN_1864
8
0
70
0
10
0.0000000
20
0.0000000
0
ENDBLK
0
BLOCK
2
DUTPIN_1859
8
0
70
0
10
0.0000000
20
0.0000000
0
ENDBLK
0
BLOCK
2
DUTPIN_1854
8
0
70
0
10
0.0000000
20
0.0000000
0
ENDBLK
0
BLOCK
2
DUTPIN_1849
8
0
70
0
10
0.0000000
20
0.0000000
0
ENDBLK
0
BLOCK
2
PTARGET_2092
8
0
70
0
10
0.0000000
20
0.0000000
0
ENDBLK
0
BLOCK
2
DUCOAX4_2113
8
0
70
0
10
0.0000000
20
0.0000000
0
INSERT
8
Bottom
2
UNIT_DISC
10
4.1900000
20
7.7500000
41
0.0500000
42
0.0500000
43
0.0500000
50
0.0000000
0
INSERT
8
Bottom
2
UNIT_DISC
10
4.0500000
20
7.7500000
41
0.0500000
42
0.0500000
43
0.0500000
50
0.0000000
0
POLYLINE
8
Bottom
6
CONTINUOUS
66
1
70
0
40
0.0500000
41
0.0500000
0
VERTEX
8
Bottom
10
4.1900000
20
7.7500000
42
0.0000000
0
VERTEX
8
Bottom
10
4.0500000
20
7.7500000
42
0.0000000
0
SEQEND
0
INSERT
8
Bottom
2
UNIT_DISC
10
3.9500000
20
7.8450000
41
0.0500000
42
0.0500000
43
0.0500000
50
0.0000000
0
INSERT
8
Bottom
2
UNIT_DISC
10
3.8100000
20
7.8450000
41
0.0500000
42
0.0500000
43
0.0500000
50
0.0000000
0
POLYLINE
8
Bottom
6
CONTINUOUS
66
1
70
0
40
0.0500000
41
0.0500000
0
VERTEX
8
Bottom
10
3.9500000
20
7.8450000
42
0.0000000
0
VERTEX
8
Bottom
10
3.8100000
20
7.8450000
42
0.0000000
0
SEQEND
0
ENDBLK
0
BLOCK
2
PTARGET_2169
8
0
70
0
10
0.0000000
20
0.0000000
0
ENDBLK
0
BLOCK
2
DUTCOAX5_2191
8
0
70
0
10
0.0000000
20
0.0000000
0
INSERT
8
Bottom
2
UNIT_DISC
10
7.7800000
20
3.4300000
41
0.0500000
42
0.0500000
43
0.0500000
50
0.0000000
0
INSERT
8
Bottom
2
UNIT_DISC
10
7.7800000
20
3.5700000
41
0.0500000
42
0.0500000
43
0.0500000
50
0.0000000
0
POLYLINE
8
Bottom
6
CONTINUOUS
66
1
70
0
40
0.0500000
41
0.0500000
0
VERTEX
8
Bottom
10
7.7800000
20
3.4300000
42
0.0000000
0
VERTEX
8
Bottom
10
7.7800000
20
3.5700000
42
0.0000000
0
SEQEND
0
INSERT
8
Bottom
2
UNIT_DISC
10
7.6200000
20
3.5000000
41
0.0150000
42
0.0150000
43
0.0150000
50
0.0000000
0
INSERT
8
Bottom
2
UNIT_DISC
10
7.5100000
20
3.5000000
41
0.0150000
42
0.0150000
43
0.0150000
50
0.0000000
0
POLYLINE
8
Bottom
6
CONTINUOUS
66
1
70
0
40
0.0150000
41
0.0150000
0
VERTEX
8
Bottom
10
7.6200000
20
3.5000000
42
0.0000000
0
VERTEX
8
Bottom
10
7.5100000
20
3.5000000
42
0.0000000
0
SEQEND
0
INSERT
8
Bottom
2
UNIT_DISC
10
7.6950000
20
3.5000000
41
0.0080000
42
0.0080000
43
0.0080000
50
0.0000000
0
INSERT
8
Bottom
2
UNIT_DISC
10
7.6200000
20
3.5000000
41
0.0080000
42
0.0080000
43
0.0080000
50
0.0000000
0
POLYLINE
8
Bottom
6
CONTINUOUS
66
1
70
0
40
0.0080000
41
0.0080000
0
VERTEX
8
Bottom
10
7.6950000
20
3.5000000
42
0.0000000
0
VERTEX
8
Bottom
10
7.6200000
20
3.5000000
42
0.0000000
0
SEQEND
0
INSERT
8
Bottom
2
UNIT_DISC
10
7.6700000
20
3.3750000
41
0.0080000
42
0.0080000
43
0.0080000
50
0.0000000
0
INSERT
8
Bottom
2
UNIT_DISC
10
7.6400000
20
3.3500000
41
0.0080000
42
0.0080000
43
0.0080000
50
0.0000000
0
POLYLINE
8
Bottom
6
CONTINUOUS
66
1
70
0
40
0.0080000
41
0.0080000
0
VERTEX
8
Bottom
10
7.6700000
20
3.3750000
42
0.0000000
0
VERTEX
8
Bottom
10
7.6400000
20
3.3500000
42
0.0000000
0
SEQEND
0
INSERT
8
Bottom
2
UNIT_DISC
10
7.6750000
20
3.6300000
41
0.0080000
42
0.0080000
43
0.0080000
50
0.0000000
0
INSERT
8
Bottom
2
UNIT_DISC
10
7.6400000
20
3.6000000
41
0.0080000
42
0.0080000
43
0.0080000
50
0.0000000
0
POLYLINE
8
Bottom
6
CONTINUOUS
66
1
70
0
40
0.0080000
41
0.0080000
0
VERTEX
8
Bottom
10
7.6750000
20
3.6300000
42
0.0000000
0
VERTEX
8
Bottom
10
7.6400000
20
3.6000000
42
0.0000000
0
SEQEND
0
ENDBLK
0
BLOCK
2
3
8
0
70
0
10
0.0000000
20
0.0000000
0
INSERT
8
0
2
PTARGET_780
10
0.0000000
20
0.0000000
41
1.0000000
42
1.0000000
43
1.0000000
50
0.0000000
0
ENDBLK
0
BLOCK
2
SN1
8
0
70
0
10
0.0000000
20
0.0000000
0
INSERT
8
0
2
PDS2401_808
10
0.0000000
20
0.0000000
41
1.0000000
42
1.0000000
43
1.0000000
50
0.0000000
0
INSERT
8
0
2
P_R25X65D0T_F
10
3.6150000
20
3.2250000
41
1.0000000
42
1.0000000
43
1.0000000
50
-180.0000000
0
INSERT
8
0
2
P_R25X65D0T_F
10
3.5350000
20
3.2250000
41
1.0000000
42
1.0000000
43
1.0000000
50
-180.0000000
0
ENDBLK
0
BLOCK
2
DP4
8
0
70
0
10
0.0000000
20
0.0000000
0
INSERT
8
0
2
DIB16_823
10
0.0000000
20
0.0000000
41
1.0000000
42
1.0000000
43
1.0000000
50
0.0000000
0
INSERT
8
0
2
P_S60D0T_F
10
2.1750000
20
3.9500000
41
1.0000000
42
1.0000000
43
1.0000000
50
-180.0000000
0
INSERT
8
0
2
P_S60D0T_F
10
2.1750000
20
4.0500000
41
1.0000000
42
1.0000000
43
1.0000000
50
-180.0000000
0
INSERT
8
0
2
P_S60D0T_F
10
2.1750000
20
3.8500000
41
1.0000000
42
1.0000000
43
1.0000000
50
-180.0000000
0
INSERT
8
0
2
P_S60D0T_F
10
2.2750000
20
3.8500000
41
1.0000000
42
1.0000000
43
1.0000000
50
-180.0000000
0
INSERT
8
0
2
P_S60D0T_F
10
2.2750000
20
3.9500000
41
1.0000000
42
1.0000000
43
1.0000000
50
-180.0000000
0
INSERT
8
0
2
P_S60D0T_F
10
2.2750000
20
4.0500000
41
1.0000000
42
1.0000000
43
1.0000000
50
-180.0000000
0
INSERT
8
0
2
P_S60D0T_F
10
2.2750000
20
4.1500000
41
1.0000000
42
1.0000000
43
1.0000000
50
-180.0000000
0
INSERT
8
0
2
P_S60D0T_F
10
2.1750000
20
4.1500000
41
1.0000000
42
1.0000000
43
1.0000000
50
-180.0000000
0
INSERT
8
0
2
P_S60D0T_F
10
2.3750000
20
3.8500000
41
1.0000000
42
1.0000000
43
1.0000000
50
-180.0000000
0
INSERT
8
0
2
P_S60D0T_F
10
2.3750000
20
3.9500000
41
1.0000000
42
1.0000000
43
1.0000000
50
-180.0000000
0
INSERT
8
0
2
P_S60D0T_F
10
2.3750000
20
4.0500000
41
1.0000000
42
1.0000000
43
1.0000000
50
-180.0000000
0
INSERT
8
0
2
P_S60D0T_F
10
2.3750000
20
4.1500000
41
1.0000000
42
1.0000000
43
1.0000000
50
-180.0000000
0
INSERT
8
0
2
P_S60D0T_F
10
2.0750000
20
4.1500000
41
1.0000000
42
1.0000000
43
1.0000000
50
-180.0000000
0
INSERT
8
0
2
P_S60D0T_F
10
2.0750000
20
4.0500000
41
1.0000000
42
1.0000000
43
1.0000000
50
-180.0000000
0
INSERT
8
0
2
P_S60D0T_F
10
2.0750000
20
3.9500000
41
1.0000000
42
1.0000000
43
1.0000000
50
-180.0000000
0
INSERT
8
0
2
P_S60D0T_F
10
2.0750000
20
3.8500000
41
1.0000000
42
1.0000000
43
1.0000000
50
-180.0000000
0
ENDBLK
0
BLOCK
2
U3
8
0
70
0
10
0.0000000
20
0.0000000
0
INSERT
8
0
2
PDIGITAL30_869
10
0.0000000
20
0.0000000
41
1.0000000
42
1.0000000
43
1.0000000
50
0.0000000
0
INSERT
8
0
2
P_S50D0T_F
10
2.1000000
20
6.8125000
41
1.0000000
42
1.0000000
43
1.0000000
50
-180.0000000
0
INSERT
8
0
2
P_S50D0T_F
10
2.1750000
20
6.8125000
41
1.0000000
42
1.0000000
43
1.0000000
50
-180.0000000
0
INSERT
8
0
2
P_S50D0T_F
10
2.2500000
20
6.8125000
41
1.0000000
42
1.0000000
43
1.0000000
50
-180.0000000
0
INSERT
8
0
2
P_S50D0T_F
10
2.3250000
20
6.8125000
41
1.0000000
42
1.0000000
43
1.0000000
50
-180.0000000
0
INSERT
8
0
2
P_S50D0T_F
10
2.4000000
20
6.8125000
41
1.0000000
42
1.0000000
43
1.0000000
50
-180.0000000
0
INSERT
8
0
2
P_S50D0T_F
10
2.1000000
20
6.9625000
41
1.0000000
42
1.0000000
43
1.0000000
50
-180.0000000
0
INSERT
8
0
2
P_S50D0T_F
10
2.1000000
20
7.0375000
41
1.0000000
42
1.0000000
43
1.0000000
50
-180.0000000
0
INSERT
8
0
2
P_S50D0T_F
10
2.1000000
20
7.1125000
41
1.0000000
42
1.0000000
43
1.0000000
50
-180.0000000
0
INSERT
8
0
2
P_S50D0T_F
10
2.1000000
20
6.8875000
41
1.0000000
42
1.0000000
43
1.0000000
50
-180.0000000
0
INSERT
8
0
2
P_S50D0T_F
10
2.1750000
20
6.8875000
41
1.0000000
42
1.0000000
43
1.0000000
50
-180.0000000
0
INSERT
8
0
2
P_S50D0T_F
10
2.2500000
20
6.8875000
41
1.0000000
42
1.0000000
43
1.0000000
50
-180.0000000
0
INSERT
8
0
2
P_S50D0T_F
10
2.3250000
20
6.8875000
41
1.0000000
42
1.0000000
43
1.0000000
50
-180.0000000
0
INSERT
8
0
2
P_S50D0T_F
10
2.4000000
20
6.8875000
41
1.0000000
42
1.0000000
43
1.0000000
50
-180.0000000
0
INSERT
8
0
2
P_S50D0T_F
10
2.4000000
20
6.9625000
41
1.0000000
42
1.0000000
43
1.0000000
50
-180.0000000
0
INSERT
8
0
2
P_S50D0T_F
10
2.3250000
20
6.9625000
41
1.0000000
42
1.0000000
43
1.0000000
50
-180.0000000
0
INSERT
8
0
2
P_S50D0T_F
10
2.2500000
20
6.9625000
41
1.0000000
42
1.0000000
43
1.0000000
50
-180.0000000
0
INSERT
8
0
2
P_S50D0T_F
10
2.1750000
20
6.9625000
41
1.0000000
42
1.0000000
43
1.0000000
50
-180.0000000
0
INSERT
8
0
2
P_S50D0T_F
10
2.4000000
20
7.0375000
41
1.0000000
42
1.0000000
43
1.0000000
50
-180.0000000
0
INSERT
8
0
2
P_S50D0T_F
10
2.4000000
20
7.1125000
41
1.0000000
42
1.0000000
43
1.0000000
50
-180.0000000
0
INSERT
8
0
2
P_S50D0T_F
10
2.3250000
20
7.1125000
41
1.0000000
42
1.0000000
43
1.0000000
50
-180.0000000
0
INSERT
8
0
2
P_S50D0T_F
10
2.3250000
20
7.0375000
41
1.0000000
42
1.0000000
43
1.0000000
50
-180.0000000
0
INSERT
8
0
2
P_S50D0T_F
10
2.1750000
20
7.0375000
41
1.0000000
42
1.0000000
43
1.0000000
50
-180.0000000
0
INSERT
8
0
2
P_S50D0T_F
10
2.2500000
20
7.1125000
41
1.0000000
42
1.0000000
43
1.0000000
50
-180.0000000
0
INSERT
8
0
2
P_S50D0T_F
10
2.1750000
20
7.1125000
41
1.0000000
42
1.0000000
43
1.0000000
50
-180.0000000
0
INSERT
8
0
2
P_S50D0T_F
10
2.1000000
20
7.1875000
41
1.0000000
42
1.0000000
43
1.0000000
50
-180.0000000
0
INSERT
8
0
2
P_S50D0T_F
10
2.4000000
20
7.1875000
41
1.0000000
42
1.0000000
43
1.0000000
50
-180.0000000
0
INSERT
8
0
2
P_S50D0T_F
10
2.3250000
20
7.1875000
41
1.0000000
42
1.0000000
43
1.0000000
50
-180.0000000
0
INSERT
8
0
2
P_S50D0T_F
10
2.2500000
20
7.1875000
41
1.0000000
42
1.0000000
43
1.0000000
50
-180.0000000
0
INSERT
8
0
2
P_S50D0T_F
10
2.1750000
20
7.1875000
41
1.0000000
42
1.0000000
43
1.0000000
50
-180.0000000
0
INSERT
8
0
2
P_S50D0T_F
10
2.2500000
20
7.0375000
41
1.0000000
42
1.0000000
43
1.0000000
50
-180.0000000
0
ENDBLK
0
BLOCK
2
RF1
8
0
70
0
10
0.0000000
20
0.0000000
0
INSERT
8
0
2
DUCOAX3_944
10
0.0000000
20
0.0000000
41
1.0000000
42
1.0000000
43
1.0000000
50
0.0000000
0
INSERT
8
0
2
P_C26D10
10
2.2300000
20
5.0600000
41
1.0000000
42
1.0000000
43
1.0000000
50
0.0000000
0
INSERT
8
0
2
P_C26D10
10
2.2300000
20
4.9350000
41
1.0000000
42
1.0000000
43
1.0000000
50
0.0000000
0
INSERT
8
0
2
P_C40D0B
10
2.3200000
20
5.0000000
41
1.0000000
42
1.0000000
43
1.0000000
50
0.0000000
0
INSERT
8
0
2
P_S100D0B
10
2.3250000
20
4.8700000
41
1.0000000
42
1.0000000
43
1.0000000
50
90.0000000
0
INSERT
8
0
2
P_C26D10
10
2.3600000
20
4.9050000
41
1.0000000
42
1.0000000
43
1.0000000
50
0.0000000
0
INSERT
8
0
2
P_C26D10
10
2.2900000
20
4.9050000
41
1.0000000
42
1.0000000
43
1.0000000
50
90.0000000
0
INSERT
8
0
2
P_C26D10
10
2.2900000
20
4.8350000
41
1.0000000
42
1.0000000
43
1.0000000
50
90.0000000
0
INSERT
8
0
2
P_C26D10
10
2.3600000
20
4.8350000
41
1.0000000
42
1.0000000
43
1.0000000
50
90.0000000
0
INSERT
8
0
2
P_S100D0B
10
2.3250000
20
5.1300000
41
1.0000000
42
1.0000000
43
1.0000000
50
90.0000000
0
INSERT
8
0
2
P_C26D10
10
2.3600000
20
5.1650000
41
1.0000000
42
1.0000000
43
1.0000000
50
0.0000000
0
INSERT
8
0
2
P_C26D10
10
2.2900000
20
5.1650000
41
1.0000000
42
1.0000000
43
1.0000000
50
90.0000000
0
INSERT
8
0
2
P_C26D10
10
2.2900000
20
5.0950000
41
1.0000000
42
1.0000000
43
1.0000000
50
90.0000000
0
INSERT
8
0
2
P_C26D10
10
2.3600000
20
5.0950000
41
1.0000000
42
1.0000000
43
1.0000000
50
0.0000000
0
ENDBLK
0
BLOCK
2
PIN15
8
0
70
0
10
0.0000000
20
0.0000000
0
INSERT
8
0
2
DUTPIN_1117
10
0.0000000
20
0.0000000
41
1.0000000
42
1.0000000
43
1.0000000
50
0.0000000
0
INSERT
8
0
2
P_S5D0T
10
3.2253937
20
4.8720000
41
1.0000000
42
1.0000000
43
1.0000000
50
270.0000000
0
ENDBLK
0
BLOCK
2
PIN14
8
0
70
0
10
0.0000000
20
0.0000000
0
INSERT
8
0
2
DUTPIN_1112
10
0.0000000
20
0.0000000
41
1.0000000
42
1.0000000
43
1.0000000
50
0.0000000
0
INSERT
8
0
2
P_S5D0T
10
3.2233937
20
4.8910000
41
1.0000000
42
1.0000000
43
1.0000000
50
270.0000000
0
ENDBLK
0
BLOCK
2
PIN13
8
0
70
0
10
0.0000000
20
0.0000000
0
INSERT
8
0
2
DUTPIN_1107
10
0.0000000
20
0.0000000
41
1.0000000
42
1.0000000
43
1.0000000
50
0.0000000
0
INSERT
8
0
2
P_S5D0T
10
3.2253937
20
4.9130000
41
1.0000000
42
1.0000000
43
1.0000000
50
270.0000000
0
ENDBLK
0
BLOCK
2
PIN12
8
0
70
0
10
0.0000000
20
0.0000000
0
INSERT
8
0
2
DUTPIN_1102
10
0.0000000
20
0.0000000
41
1.0000000
42
1.0000000
43
1.0000000
50
0.0000000
0
INSERT
8
0
2
P_S5D0T
10
3.2263937
20
4.9310000
41
1.0000000
42
1.0000000
43
1.0000000
50
270.0000000
0
ENDBLK
0
BLOCK
2
PIN11
8
0
70
0
10
0.0000000
20
0.0000000
0
INSERT
8
0
2
DUTPIN_1097
10
0.0000000
20
0.0000000
41
1.0000000
42
1.0000000
43
1.0000000
50
0.0000000
0
INSERT
8
0
2
P_S5D0T
10
3.2253937
20
4.9500000
41
1.0000000
42
1.0000000
43
1.0000000
50
270.0000000
0
ENDBLK
0
BLOCK
2
PIN10
8
0
70
0
10
0.0000000
20
0.0000000
0
INSERT
8
0
2
DUTPIN_1092
10
0.0000000
20
0.0000000
41
1.0000000
42
1.0000000
43
1.0000000
50
0.0000000
0
INSERT
8
0
2
P_S5D0T
10
3.2243937
20
4.9710000
41
1.0000000
42
1.0000000
43
1.0000000
50
0.0000000
0
ENDBLK
0
BLOCK
2
PIN9
8
0
70
0
10
0.0000000
20
0.0000000
0
INSERT
8
0
2
DUTPIN_1087
10
0.0000000
20
0.0000000
41
1.0000000
42
1.0000000
43
1.0000000
50
0.0000000
0
INSERT
8
0
2
P_S5D0T
10
3.2243937
20
4.9900000
41
1.0000000
42
1.0000000
43
1.0000000
50
0.0000000
0
ENDBLK
0
BLOCK
2
PIN8
8
0
70
0
10
0.0000000
20
0.0000000
0
INSERT
8
0
2
DUTPIN_1082
10
0.0000000
20
0.0000000
41
1.0000000
42
1.0000000
43
1.0000000
50
0.0000000
0
INSERT
8
0
2
P_S5D0T
10
3.2243937
20
5.0100000
41
1.0000000
42
1.0000000
43
1.0000000
50
0.0000000
0
ENDBLK
0
BLOCK
2
PIN2
8
0
70
0
10
0.0000000
20
0.0000000
0
INSERT
8
0
2
DUTPIN_1077
10
0.0000000
20
0.0000000
41
1.0000000
42
1.0000000
43
1.0000000
50
0.0000000
0
INSERT
8
0
2
P_S5D0T
10
3.2253937
20
5.1280000
41
1.0000000
42
1.0000000
43
1.0000000
50
0.0000000
0
ENDBLK
0
BLOCK
2
PIN1
8
0
70
0
10
0.0000000
20
0.0000000
0
INSERT
8
0
2
DUTPIN_1072
10
0.0000000
20
0.0000000
41
1.0000000
42
1.0000000
43
1.0000000
50
0.0000000
0
INSERT
8
0
2
P_S5D0T
10
3.2263937
20
5.1470000
41
1.0000000
42
1.0000000
43
1.0000000
50
0.0000000
0
ENDBLK
0
BLOCK
2
PIN3
8
0
70
0
10
0.0000000
20
0.0000000
0
INSERT
8
0
2
DUTPIN_1067
10
0.0000000
20
0.0000000
41
1.0000000
42
1.0000000
43
1.0000000
50
0.0000000
0
INSERT
8
0
2
P_S5D0T
10
3.2243937
20
5.1090000
41
1.0000000
42
1.0000000
43
1.0000000
50
0.0000000
0
ENDBLK
0
BLOCK
2
PIN4
8
0
70
0
10
0.0000000
20
0.0000000
0
INSERT
8
0
2
DUTPIN_1062
10
0.0000000
20
0.0000000
41
1.0000000
42
1.0000000
43
1.0000000
50
0.0000000
0
INSERT
8
0
2
P_S5D0T
10
3.2253937
20
5.0890000
41
1.0000000
42
1.0000000
43
1.0000000
50
0.0000000
0
ENDBLK
0
BLOCK
2
PIN5
8
0
70
0
10
0.0000000
20
0.0000000
0
INSERT
8
0
2
DUTPIN_1057
10
0.0000000
20
0.0000000
41
1.0000000
42
1.0000000
43
1.0000000
50
0.0000000
0
INSERT
8
0
2
P_S5D0T
10
3.2243937
20
5.0680000
41
1.0000000
42
1.0000000
43
1.0000000
50
0.0000000
0
ENDBLK
0
BLOCK
2
PIN6
8
0
70
0
10
0.0000000
20
0.0000000
0
INSERT
8
0
2
DUTPIN_1052
10
0.0000000
20
0.0000000
41
1.0000000
42
1.0000000
43
1.0000000
50
0.0000000
0
INSERT
8
0
2
P_S5D0T
10
3.2243937
20
5.0490000
41
1.0000000
42
1.0000000
43
1.0000000
50
0.0000000
0
ENDBLK
0
BLOCK
2
PIN7
8
0
70
0
10
0.0000000
20
0.0000000
0
INSERT
8
0
2
DUTPIN_1047
10
0.0000000
20
0.0000000
41
1.0000000
42
1.0000000
43
1.0000000
50
0.0000000
0
INSERT
8
0
2
P_S5D0T
10
3.2243937
20
5.0300000
41
1.0000000
42
1.0000000
43
1.0000000
50
0.0000000
0
ENDBLK
0
BLOCK
2
PIN62
8
0
70
0
10
0.0000000
20
0.0000000
0
INSERT
8
0
2
DUTPIN_1042
10
0.0000000
20
0.0000000
41
1.0000000
42
1.0000000
43
1.0000000
50
0.0000000
0
INSERT
8
0
2
P_S5D0T
10
3.3173937
20
5.2000000
41
1.0000000
42
1.0000000
43
1.0000000
50
180.0000000
0
ENDBLK
0
BLOCK
2
PIN63
8
0
70
0
10
0.0000000
20
0.0000000
0
INSERT
8
0
2
DUTPIN_1037
10
0.0000000
20
0.0000000
41
1.0000000
42
1.0000000
43
1.0000000
50
0.0000000
0
INSERT
8
0
2
P_S5D0T
10
3.2983937
20
5.2010000
41
1.0000000
42
1.0000000
43
1.0000000
50
180.0000000
0
ENDBLK
0
BLOCK
2
PIN64
8
0
70
0
10
0.0000000
20
0.0000000
0
INSERT
8
0
2
DUTPIN_1032
10
0.0000000
20
0.0000000
41
1.0000000
42
1.0000000
43
1.0000000
50
0.0000000
0
INSERT
8
0
2
P_S5D0T
10
3.2783937
20
5.2010000
41
1.0000000
42
1.0000000
43
1.0000000
50
180.0000000
0
ENDBLK
0
BLOCK
2
PIN18
8
0
70
0
10
0.0000000
20
0.0000000
0
INSERT
8
0
2
DUTPIN_1027
10
0.0000000
20
0.0000000
41
1.0000000
42
1.0000000
43
1.0000000
50
0.0000000
0
INSERT
8
0
2
P_S5D0T
10
3.2973937
20
4.8020000
41
1.0000000
42
1.0000000
43
1.0000000
50
90.0000000
0
ENDBLK
0
BLOCK
2
PIN19
8
0
70
0
10
0.0000000
20
0.0000000
0
INSERT
8
0
2
DUTPIN_1022
10
0.0000000
20
0.0000000
41
1.0000000
42
1.0000000
43
1.0000000
50
0.0000000
0
INSERT
8
0
2
P_S5D0T
10
3.3173937
20
4.8000000
41
1.0000000
42
1.0000000
43
1.0000000
50
90.0000000
0
ENDBLK
0
BLOCK
2
PIN17
8
0
70
0
10
0.0000000
20
0.0000000
0
INSERT
8
0
2
DUTPIN_1017
10
0.0000000
20
0.0000000
41
1.0000000
42
1.0000000
43
1.0000000
50
0.0000000
0
INSERT
8
0
2
P_S5D0T
10
3.2763937
20
4.8010000
41
1.0000000
42
1.0000000
43
1.0000000
50
90.0000000
0
ENDBLK
0
BLOCK
2
PIN16
8
0
70
0
10
0.0000000
20
0.0000000
0
INSERT
8
0
2
DUTPIN_1122
10
0.0000000
20
0.0000000
41
1.0000000
42
1.0000000
43
1.0000000
50
0.0000000
0
INSERT
8
0
2
P_S5D0T
10
3.2263937
20
4.8510000
41
1.0000000
42
1.0000000
43
1.0000000
50
270.0000000
0
ENDBLK
0
BLOCK
2
PIN31
8
0
70
0
10
0.0000000
20
0.0000000
0
INSERT
8
0
2
DUTPIN_1221
10
0.0000000
20
0.0000000
41
1.0000000
42
1.0000000
43
1.0000000
50
0.0000000
0
INSERT
8
0
2
P_S5D0T
10
3.5533937
20
4.8000000
41
1.0000000
42
1.0000000
43
1.0000000
50
90.0000000
0
ENDBLK
0
BLOCK
2
PIN22
8
0
70
0
10
0.0000000
20
0.0000000
0
INSERT
8
0
2
DUTPIN_1216
10
0.0000000
20
0.0000000
41
1.0000000
42
1.0000000
43
1.0000000
50
0.0000000
0
INSERT
8
0
2
P_S5D0T
10
3.3753937
20
4.8000000
41
1.0000000
42
1.0000000
43
1.0000000
50
90.0000000
0
ENDBLK
0
BLOCK
2
PIN28
8
0
70
0
10
0.0000000
20
0.0000000
0
INSERT
8
0
2
DUTPIN_1211
10
0.0000000
20
0.0000000
41
1.0000000
42
1.0000000
43
1.0000000
50
0.0000000
0
INSERT
8
0
2
P_S5D0T
10
3.4943937
20
4.8000000
41
1.0000000
42
1.0000000
43
1.0000000
50
90.0000000
0
ENDBLK
0
BLOCK
2
PIN25
8
0
70
0
10
0.0000000
20
0.0000000
0
INSERT
8
0
2
DUTPIN_1144
10
0.0000000
20
0.0000000
41
1.0000000
42
1.0000000
43
1.0000000
50
0.0000000
0
INSERT
8
0
2
P_S5D0T
10
3.4363937
20
4.7990000
41
1.0000000
42
1.0000000
43
1.0000000
50
90.0000000
0
ENDBLK
0
BLOCK
2
PIN26
8
0
70
0
10
0.0000000
20
0.0000000
0
INSERT
8
0
2
DUTPIN_1162
10
0.0000000
20
0.0000000
41
1.0000000
42
1.0000000
43
1.0000000
50
0.0000000
0
INSERT
8
0
2
P_S5D0T
10
3.4543937
20
4.7990000
41
1.0000000
42
1.0000000
43
1.0000000
50
90.0000000
0
ENDBLK
0
BLOCK
2
PIN23
8
0
70
0
10
0.0000000
20
0.0000000
0
INSERT
8
0
2
DUTPIN_1167
10
0.0000000
20
0.0000000
41
1.0000000
42
1.0000000
43
1.0000000
50
0.0000000
0
INSERT
8
0
2
P_S5D0T
10
3.3953937
20
4.7980000
41
1.0000000
42
1.0000000
43
1.0000000
50
0.0000000
0
ENDBLK
0
BLOCK
2
PIN21
8
0
70
0
10
0.0000000
20
0.0000000
0
INSERT
8
0
2
DUTPIN_1173
10
0.0000000
20
0.0000000
41
1.0000000
42
1.0000000
43
1.0000000
50
0.0000000
0
INSERT
8
0
2
P_S5D0T
10
3.3563937
20
4.8000000
41
1.0000000
42
1.0000000
43
1.0000000
50
90.0000000
0
ENDBLK
0
BLOCK
2
PIN24
8
0
70
0
10
0.0000000
20
0.0000000
0
INSERT
8
0
2
DUTPIN_1179
10
0.0000000
20
0.0000000
41
1.0000000
42
1.0000000
43
1.0000000
50
0.0000000
0
INSERT
8
0
2
P_S5D0T
10
3.4153937
20
4.8000000
41
1.0000000
42
1.0000000
43
1.0000000
50
90.0000000
0
ENDBLK
0
BLOCK
2
PIN27
8
0
70
0
10
0.0000000
20
0.0000000
0
INSERT
8
0
2
DUTPIN_1184
10
0.0000000
20
0.0000000
41
1.0000000
42
1.0000000
43
1.0000000
50
0.0000000
0
INSERT
8
0
2
P_S5D0T
10
3.4743937
20
4.8000000
41
1.0000000
42
1.0000000
43
1.0000000
50
90.0000000
0
ENDBLK
0
BLOCK
2
PIN30
8
0
70
0
10
0.0000000
20
0.0000000
0
INSERT
8
0
2
DUTPIN_1190
10
0.0000000
20
0.0000000
41
1.0000000
42
1.0000000
43
1.0000000
50
0.0000000
0
INSERT
8
0
2
P_S5D0T
10
3.5333937
20
4.8000000
41
1.0000000
42
1.0000000
43
1.0000000
50
90.0000000
0
ENDBLK
0
BLOCK
2
PIN29
8
0
70
0
10
0.0000000
20
0.0000000
0
INSERT
8
0
2
DUTPIN_1195
10
0.0000000
20
0.0000000
41
1.0000000
42
1.0000000
43
1.0000000
50
0.0000000
0
INSERT
8
0
2
P_S5D0T
10
3.5143937
20
4.7990000
41
1.0000000
42
1.0000000
43
1.0000000
50
90.0000000
0
ENDBLK
0
BLOCK
2
PIN20
8
0
70
0
10
0.0000000
20
0.0000000
0
INSERT
8
0
2
DUTPIN_1200
10
0.0000000
20
0.0000000
41
1.0000000
42
1.0000000
43
1.0000000
50
0.0000000
0
INSERT
8
0
2
P_S5D0T
10
3.3363937
20
4.8000000
41
1.0000000
42
1.0000000
43
1.0000000
50
90.0000000
0
ENDBLK
0
BLOCK
2
PIN54
8
0
70
0
10
0.0000000
20
0.0000000
0
INSERT
8
0
2
DUTPIN_1282
10
0.0000000
20
0.0000000
41
1.0000000
42
1.0000000
43
1.0000000
50
0.0000000
0
INSERT
8
0
2
P_S5D0T
10
3.4743937
20
5.2000000
41
1.0000000
42
1.0000000
43
1.0000000
50
0.0000000
0
ENDBLK
0
BLOCK
2
PIN53
8
0
70
0
10
0.0000000
20
0.0000000
0
INSERT
8
0
2
DUTPIN_1277
10
0.0000000
20
0.0000000
41
1.0000000
42
1.0000000
43
1.0000000
50
0.0000000
0
INSERT
8
0
2
P_S5D0T
10
3.4933937
20
5.1990000
41
1.0000000
42
1.0000000
43
1.0000000
50
0.0000000
0
ENDBLK
0
BLOCK
2
PIN52
8
0
70
0
10
0.0000000
20
0.0000000
0
INSERT
8
0
2
DUTPIN_1272
10
0.0000000
20
0.0000000
41
1.0000000
42
1.0000000
43
1.0000000
50
0.0000000
0
INSERT
8
0
2
P_S5D0T
10
3.5143937
20
5.1990000
41
1.0000000
42
1.0000000
43
1.0000000
50
0.0000000
0
ENDBLK
0
BLOCK
2
PIN60
8
0
70
0
10
0.0000000
20
0.0000000
0
INSERT
8
0
2
DUTPIN_1267
10
0.0000000
20
0.0000000
41
1.0000000
42
1.0000000
43
1.0000000
50
0.0000000
0
INSERT
8
0
2
P_S5D0T
10
3.3573937
20
5.2000000
41
1.0000000
42
1.0000000
43
1.0000000
50
180.0000000
0
ENDBLK
0
BLOCK
2
PIN59
8
0
70
0
10
0.0000000
20
0.0000000
0
INSERT
8
0
2
DUTPIN_1262
10
0.0000000
20
0.0000000
41
1.0000000
42
1.0000000
43
1.0000000
50
0.0000000
0
INSERT
8
0
2
P_S5D0T
10
3.3763937
20
5.2000000
41
1.0000000
42
1.0000000
43
1.0000000
50
0.0000000
0
ENDBLK
0
BLOCK
2
PIN57
8
0
70
0
10
0.0000000
20
0.0000000
0
INSERT
8
0
2
DUTPIN_1257
10
0.0000000
20
0.0000000
41
1.0000000
42
1.0000000
43
1.0000000
50
0.0000000
0
INSERT
8
0
2
P_S5D0T
10
3.4153937
20
5.2000000
41
1.0000000
42
1.0000000
43
1.0000000
50
0.0000000
0
ENDBLK
0
BLOCK
2
PIN58
8
0
70
0
10
0.0000000
20
0.0000000
0
INSERT
8
0
2
DUTPIN_1252
10
0.0000000
20
0.0000000
41
1.0000000
42
1.0000000
43
1.0000000
50
0.0000000
0
INSERT
8
0
2
P_S5D0T
10
3.3963937
20
5.1990000
41
1.0000000
42
1.0000000
43
1.0000000
50
0.0000000
0
ENDBLK
0
BLOCK
2
PIN56
8
0
70
0
10
0.0000000
20
0.0000000
0
INSERT
8
0
2
DUTPIN_1247
10
0.0000000
20
0.0000000
41
1.0000000
42
1.0000000
43
1.0000000
50
0.0000000
0
INSERT
8
0
2
P_S5D0T
10
3.4353937
20
5.1990000
41
1.0000000
42
1.0000000
43
1.0000000
50
0.0000000
0
ENDBLK
0
BLOCK
2
PIN55
8
0
70
0
10
0.0000000
20
0.0000000
0
INSERT
8
0
2
DUTPIN_1242
10
0.0000000
20
0.0000000
41
1.0000000
42
1.0000000
43
1.0000000
50
0.0000000
0
INSERT
8
0
2
P_S5D0T
10
3.4543937
20
5.2010000
41
1.0000000
42
1.0000000
43
1.0000000
50
0.0000000
0
ENDBLK
0
BLOCK
2
PIN50
8
0
70
0
10
0.0000000
20
0.0000000
0
INSERT
8
0
2
DUTPIN_1237
10
0.0000000
20
0.0000000
41
1.0000000
42
1.0000000
43
1.0000000
50
0.0000000
0
INSERT
8
0
2
P_S5D0T
10
3.5523937
20
5.2000000
41
1.0000000
42
1.0000000
43
1.0000000
50
0.0000000
0
ENDBLK
0
BLOCK
2
PIN51
8
0
70
0
10
0.0000000
20
0.0000000
0
INSERT
8
0
2
DUTPIN_1232
10
0.0000000
20
0.0000000
41
1.0000000
42
1.0000000
43
1.0000000
50
0.0000000
0
INSERT
8
0
2
P_S5D0T
10
3.5323937
20
5.2000000
41
1.0000000
42
1.0000000
43
1.0000000
50
0.0000000
0
ENDBLK
0
BLOCK
2
PIN61
8
0
70
0
10
0.0000000
20
0.0000000
0
INSERT
8
0
2
DUTPIN_1227
10
0.0000000
20
0.0000000
41
1.0000000
42
1.0000000
43
1.0000000
50
0.0000000
0
INSERT
8
0
2
P_S5D0T
10
3.3363937
20
5.2000000
41
1.0000000
42
1.0000000
43
1.0000000
50
180.0000000
0
ENDBLK
0
BLOCK
2
PIN40
8
0
70
0
10
0.0000000
20
0.0000000
0
INSERT
8
0
2
DUTPIN_1325
10
0.0000000
20
0.0000000
41
1.0000000
42
1.0000000
43
1.0000000
50
0.0000000
0
INSERT
8
0
2
P_S5D0T
10
3.6253937
20
4.9910000
41
1.0000000
42
1.0000000
43
1.0000000
50
90.0000000
0
ENDBLK
0
BLOCK
2
PIN41
8
0
70
0
10
0.0000000
20
0.0000000
0
INSERT
8
0
2
DUTPIN_1320
10
0.0000000
20
0.0000000
41
1.0000000
42
1.0000000
43
1.0000000
50
0.0000000
0
INSERT
8
0
2
P_S5D0T
10
3.6253937
20
5.0110000
41
1.0000000
42
1.0000000
43
1.0000000
50
90.0000000
0
ENDBLK
0
BLOCK
2
PIN42
8
0
70
0
10
0.0000000
20
0.0000000
0
INSERT
8
0
2
DUTPIN_1315
10
0.0000000
20
0.0000000
41
1.0000000
42
1.0000000
43
1.0000000
50
0.0000000
0
INSERT
8
0
2
P_S5D0T
10
3.6263937
20
5.0310000
41
1.0000000
42
1.0000000
43
1.0000000
50
90.0000000
0
ENDBLK
0
BLOCK
2
PIN48
8
0
70
0
10
0.0000000
20
0.0000000
0
INSERT
8
0
2
DUTPIN_1310
10
0.0000000
20
0.0000000
41
1.0000000
42
1.0000000
43
1.0000000
50
0.0000000
0
INSERT
8
0
2
P_S5D0T
10
3.6263937
20
5.1470000
41
1.0000000
42
1.0000000
43
1.0000000
50
0.0000000
0
ENDBLK
0
BLOCK
2
PIN47
8
0
70
0
10
0.0000000
20
0.0000000
0
INSERT
8
0
2
DUTPIN_1305
10
0.0000000
20
0.0000000
41
1.0000000
42
1.0000000
43
1.0000000
50
0.0000000
0
INSERT
8
0
2
P_S5D0T
10
3.6253937
20
5.1280000
41
1.0000000
42
1.0000000
43
1.0000000
50
0.0000000
0
ENDBLK
0
BLOCK
2
PIN46
8
0
70
0
10
0.0000000
20
0.0000000
0
INSERT
8
0
2
DUTPIN_1300
10
0.0000000
20
0.0000000
41
1.0000000
42
1.0000000
43
1.0000000
50
0.0000000
0
INSERT
8
0
2
P_S5D0T
10
3.6253937
20
5.1080000
41
1.0000000
42
1.0000000
43
1.0000000
50
0.0000000
0
ENDBLK
0
BLOCK
2
PIN43
8
0
70
0
10
0.0000000
20
0.0000000
0
INSERT
8
0
2
DUTPIN_1355
10
0.0000000
20
0.0000000
41
1.0000000
42
1.0000000
43
1.0000000
50
0.0000000
0
INSERT
8
0
2
P_S5D0T
10
3.6263937
20
5.0500000
41
1.0000000
42
1.0000000
43
1.0000000
50
90.0000000
0
ENDBLK
0
BLOCK
2
PIN44
8
0
70
0
10
0.0000000
20
0.0000000
0
INSERT
8
0
2
DUTPIN_1360
10
0.0000000
20
0.0000000
41
1.0000000
42
1.0000000
43
1.0000000
50
0.0000000
0
INSERT
8
0
2
P_S5D0T
10
3.6263937
20
5.0690000
41
1.0000000
42
1.0000000
43
1.0000000
50
90.0000000
0
ENDBLK
0
BLOCK
2
PIN45
8
0
70
0
10
0.0000000
20
0.0000000
0
INSERT
8
0
2
DUTPIN_1365
10
0.0000000
20
0.0000000
41
1.0000000
42
1.0000000
43
1.0000000
50
0.0000000
0
INSERT
8
0
2
P_S5D0T
10
3.6243937
20
5.0890000
41
1.0000000
42
1.0000000
43
1.0000000
50
90.0000000
0
ENDBLK
0
BLOCK
2
PIN49
8
0
70
0
10
0.0000000
20
0.0000000
0
INSERT
8
0
2
DUTPIN_1370
10
0.0000000
20
0.0000000
41
1.0000000
42
1.0000000
43
1.0000000
50
0.0000000
0
INSERT
8
0
2
P_S5D0T
10
3.5723937
20
5.2000000
41
1.0000000
42
1.0000000
43
1.0000000
50
0.0000000
0
ENDBLK
0
BLOCK
2
PIN35
8
0
70
0
10
0.0000000
20
0.0000000
0
INSERT
8
0
2
DUTPIN_1390
10
0.0000000
20
0.0000000
41
1.0000000
42
1.0000000
43
1.0000000
50
0.0000000
0
INSERT
8
0
2
P_S5D0T
10
3.6253937
20
4.8930000
41
1.0000000
42
1.0000000
43
1.0000000
50
90.0000000
0
ENDBLK
0
BLOCK
2
PIN36
8
0
70
0
10
0.0000000
20
0.0000000
0
INSERT
8
0
2
DUTPIN_1395
10
0.0000000
20
0.0000000
41
1.0000000
42
1.0000000
43
1.0000000
50
0.0000000
0
INSERT
8
0
2
P_S5D0T
10
3.6273937
20
4.9130000
41
1.0000000
42
1.0000000
43
1.0000000
50
90.0000000
0
ENDBLK
0
BLOCK
2
PIN37
8
0
70
0
10
0.0000000
20
0.0000000
0
INSERT
8
0
2
DUTPIN_1400
10
0.0000000
20
0.0000000
41
1.0000000
42
1.0000000
43
1.0000000
50
0.0000000
0
INSERT
8
0
2
P_S5D0T
10
3.6253937
20
4.9320000
41
1.0000000
42
1.0000000
43
1.0000000
50
90.0000000
0
ENDBLK
0
BLOCK
2
PIN38
8
0
70
0
10
0.0000000
20
0.0000000
0
INSERT
8
0
2
DUTPIN_1405
10
0.0000000
20
0.0000000
41
1.0000000
42
1.0000000
43
1.0000000
50
0.0000000
0
INSERT
8
0
2
P_S5D0T
10
3.6253937
20
4.9520000
41
1.0000000
42
1.0000000
43
1.0000000
50
90.0000000
0
ENDBLK
0
BLOCK
2
PIN39
8
0
70
0
10
0.0000000
20
0.0000000
0
INSERT
8
0
2
DUTPIN_1410
10
0.0000000
20
0.0000000
41
1.0000000
42
1.0000000
43
1.0000000
50
0.0000000
0
INSERT
8
0
2
P_S5D0T
10
3.6263937
20
4.9710000
41
1.0000000
42
1.0000000
43
1.0000000
50
90.0000000
0
ENDBLK
0
BLOCK
2
PIN32
8
0
70
0
10
0.0000000
20
0.0000000
0
INSERT
8
0
2
DUTPIN_1415
10
0.0000000
20
0.0000000
41
1.0000000
42
1.0000000
43
1.0000000
50
0.0000000
0
INSERT
8
0
2
P_S5D0T
10
3.5733937
20
4.7980000
41
1.0000000
42
1.0000000
43
1.0000000
50
90.0000000
0
ENDBLK
0
BLOCK
2
PIN34
8
0
70
0
10
0.0000000
20
0.0000000
0
INSERT
8
0
2
DUTPIN_1420
10
0.0000000
20
0.0000000
41
1.0000000
42
1.0000000
43
1.0000000
50
0.0000000
0
INSERT
8
0
2
P_S5D0T
10
3.6253937
20
4.8720000
41
1.0000000
42
1.0000000
43
1.0000000
50
90.0000000
0
ENDBLK
0
BLOCK
2
PIN33
8
0
70
0
10
0.0000000
20
0.0000000
0
INSERT
8
0
2
DUTPIN_1425
10
0.0000000
20
0.0000000
41
1.0000000
42
1.0000000
43
1.0000000
50
0.0000000
0
INSERT
8
0
2
P_S5D0T
10
3.6263937
20
4.8530000
41
1.0000000
42
1.0000000
43
1.0000000
50
90.0000000
0
ENDBLK
0
BLOCK
2
RF3
8
0
70
0
10
0.0000000
20
0.0000000
0
INSERT
8
0
2
DUCOAX3_1468
10
0.0000000
20
0.0000000
41
1.0000000
42
1.0000000
43
1.0000000
50
0.0000000
0
INSERT
8
0
2
P_C26D10
10
5.2550000
20
5.0600000
41
1.0000000
42
1.0000000
43
1.0000000
50
0.0000000
0
INSERT
8
0
2
P_C26D10
10
5.2550000
20
4.9350000
41
1.0000000
42
1.0000000
43
1.0000000
50
0.0000000
0
INSERT
8
0
2
P_C40D0B
10
5.3450000
20
5.0000000
41
1.0000000
42
1.0000000
43
1.0000000
50
0.0000000
0
INSERT
8
0
2
P_S100D0B
10
5.3500000
20
4.8700000
41
1.0000000
42
1.0000000
43
1.0000000
50
90.0000000
0
INSERT
8
0
2
P_C26D10
10
5.3850000
20
4.9050000
41
1.0000000
42
1.0000000
43
1.0000000
50
0.0000000
0
INSERT
8
0
2
P_C26D10
10
5.3150000
20
4.9050000
41
1.0000000
42
1.0000000
43
1.0000000
50
90.0000000
0
INSERT
8
0
2
P_C26D10
10
5.3150000
20
4.8350000
41
1.0000000
42
1.0000000
43
1.0000000
50
90.0000000
0
INSERT
8
0
2
P_C26D10
10
5.3850000
20
4.8350000
41
1.0000000
42
1.0000000
43
1.0000000
50
90.0000000
0
INSERT
8
0
2
P_S100D0B
10
5.3500000
20
5.1300000
41
1.0000000
42
1.0000000
43
1.0000000
50
90.0000000
0
INSERT
8
0
2
P_C26D10
10
5.3850000
20
5.1650000
41
1.0000000
42
1.0000000
43
1.0000000
50
0.0000000
0
INSERT
8
0
2
P_C26D10
10
5.3150000
20
5.1650000
41
1.0000000
42
1.0000000
43
1.0000000
50
90.0000000
0
INSERT
8
0
2
P_C26D10
10
5.3150000
20
5.0950000
41
1.0000000
42
1.0000000
43
1.0000000
50
90.0000000
0
INSERT
8
0
2
P_C26D10
10
5.3850000
20
5.0950000
41
1.0000000
42
1.0000000
43
1.0000000
50
0.0000000
0
ENDBLK
0
BLOCK
2
RF2
8
0
70
0
10
0.0000000
20
0.0000000
0
INSERT
8
0
2
DUCOAX3_1430
10
0.0000000
20
0.0000000
41
1.0000000
42
1.0000000
43
1.0000000
50
0.0000000
0
INSERT
8
0
2
P_C26D10
10
4.7450000
20
4.9400000
41
1.0000000
42
1.0000000
43
1.0000000
50
180.0000000
0
INSERT
8
0
2
P_C26D10
10
4.7450000
20
5.0650000
41
1.0000000
42
1.0000000
43
1.0000000
50
180.0000000
0
INSERT
8
0
2
P_C40D0B
10
4.6550000
20
5.0000000
41
1.0000000
42
1.0000000
43
1.0000000
50
180.0000000
0
INSERT
8
0
2
P_S100D0B
10
4.6500000
20
5.1300000
41
1.0000000
42
1.0000000
43
1.0000000
50
270.0000000
0
INSERT
8
0
2
P_C26D10
10
4.6150000
20
5.0950000
41
1.0000000
42
1.0000000
43
1.0000000
50
180.0000000
0
INSERT
8
0
2
P_C26D10
10
4.6850000
20
5.0950000
41
1.0000000
42
1.0000000
43
1.0000000
50
270.0000000
0
INSERT
8
0
2
P_C26D10
10
4.6850000
20
5.1650000
41
1.0000000
42
1.0000000
43
1.0000000
50
270.0000000
0
INSERT
8
0
2
P_C26D10
10
4.6150000
20
5.1650000
41
1.0000000
42
1.0000000
43
1.0000000
50
270.0000000
0
INSERT
8
0
2
P_S100D0B
10
4.6500000
20
4.8700000
41
1.0000000
42
1.0000000
43
1.0000000
50
270.0000000
0
INSERT
8
0
2
P_C26D10
10
4.6150000
20
4.8350000
41
1.0000000
42
1.0000000
43
1.0000000
50
180.0000000
0
INSERT
8
0
2
P_C26D10
10
4.6850000
20
4.8350000
41
1.0000000
42
1.0000000
43
1.0000000
50
270.0000000
0
INSERT
8
0
2
P_C26D10
10
4.6850000
20
4.9050000
41
1.0000000
42
1.0000000
43
1.0000000
50
270.0000000
0
INSERT
8
0
2
P_C26D10
10
4.6150000
20
4.9050000
41
1.0000000
42
1.0000000
43
1.0000000
50
180.0000000
0
ENDBLK
0
BLOCK
2
DP3
8
0
70
0
10
0.0000000
20
0.0000000
0
INSERT
8
0
2
PDIB12_1551
10
0.0000000
20
0.0000000
41
1.0000000
42
1.0000000
43
1.0000000
50
0.0000000
0
INSERT
8
0
2
P_S60D0T_F
10
5.2000000
20
5.9500000
41
1.0000000
42
1.0000000
43
1.0000000
50
-180.0000000
0
INSERT
8
0
2
P_S60D0T_F
10
5.2000000
20
6.0500000
41
1.0000000
42
1.0000000
43
1.0000000
50
-180.0000000
0
INSERT
8
0
2
P_S60D0T_F
10
5.2000000
20
5.8500000
41
1.0000000
42
1.0000000
43
1.0000000
50
-180.0000000
0
INSERT
8
0
2
P_S60D0T_F
10
5.3000000
20
5.8500000
41
1.0000000
42
1.0000000
43
1.0000000
50
-180.0000000
0
INSERT
8
0
2
P_S60D0T_F
10
5.3000000
20
5.9500000
41
1.0000000
42
1.0000000
43
1.0000000
50
-180.0000000
0
INSERT
8
0
2
P_S60D0T_F
10
5.3000000
20
6.0500000
41
1.0000000
42
1.0000000
43
1.0000000
50
-180.0000000
0
INSERT
8
0
2
P_S60D0T_F
10
5.3000000
20
6.1500000
41
1.0000000
42
1.0000000
43
1.0000000
50
-180.0000000
0
INSERT
8
0
2
P_S60D0T_F
10
5.2000000
20
6.1500000
41
1.0000000
42
1.0000000
43
1.0000000
50
-180.0000000
0
INSERT
8
0
2
P_S60D0T_F
10
5.4000000
20
5.8500000
41
1.0000000
42
1.0000000
43
1.0000000
50
-180.0000000
0
INSERT
8
0
2
P_S60D0T_F
10
5.4000000
20
5.9500000
41
1.0000000
42
1.0000000
43
1.0000000
50
-180.0000000
0
INSERT
8
0
2
P_S60D0T_F
10
5.4000000
20
6.0500000
41
1.0000000
42
1.0000000
43
1.0000000
50
-180.0000000
0
INSERT
8
0
2
P_S60D0T_F
10
5.4000000
20
6.1500000
41
1.0000000
42
1.0000000
43
1.0000000
50
-180.0000000
0
ENDBLK
0
BLOCK
2
DP1
8
0
70
0
10
0.0000000
20
0.0000000
0
INSERT
8
0
2
PDIB12_1520
10
0.0000000
20
0.0000000
41
1.0000000
42
1.0000000
43
1.0000000
50
0.0000000
0
INSERT
8
0
2
P_S60D0T_F
10
4.8000000
20
6.0500000
41
1.0000000
42
1.0000000
43
1.0000000
50
0.0000000
0
INSERT
8
0
2
P_S60D0T_F
10
4.8000000
20
5.9500000
41
1.0000000
42
1.0000000
43
1.0000000
50
0.0000000
0
INSERT
8
0
2
P_S60D0T_F
10
4.8000000
20
6.1500000
41
1.0000000
42
1.0000000
43
1.0000000
50
0.0000000
0
INSERT
8
0
2
P_S60D0T_F
10
4.7000000
20
6.1500000
41
1.0000000
42
1.0000000
43
1.0000000
50
0.0000000
0
INSERT
8
0
2
P_S60D0T_F
10
4.7000000
20
6.0500000
41
1.0000000
42
1.0000000
43
1.0000000
50
0.0000000
0
INSERT
8
0
2
P_S60D0T_F
10
4.7000000
20
5.9500000
41
1.0000000
42
1.0000000
43
1.0000000
50
0.0000000
0
INSERT
8
0
2
P_S60D0T_F
10
4.7000000
20
5.8500000
41
1.0000000
42
1.0000000
43
1.0000000
50
0.0000000
0
INSERT
8
0
2
P_S60D0T_F
10
4.8000000
20
5.8500000
41
1.0000000
42
1.0000000
43
1.0000000
50
0.0000000
0
INSERT
8
0
2
P_S60D0T_F
10
4.6000000
20
6.1500000
41
1.0000000
42
1.0000000
43
1.0000000
50
0.0000000
0
INSERT
8
0
2
P_S60D0T_F
10
4.6000000
20
6.0500000
41
1.0000000
42
1.0000000
43
1.0000000
50
0.0000000
0
INSERT
8
0
2
P_S60D0T_F
10
4.6000000
20
5.9500000
41
1.0000000
42
1.0000000
43
1.0000000
50
0.0000000
0
INSERT
8
0
2
P_S60D0T_F
10
4.6000000
20
5.8500000
41
1.0000000
42
1.0000000
43
1.0000000
50
0.0000000
0
ENDBLK
0
BLOCK
2
PIN124
8
0
70
0
10
0.0000000
20
0.0000000
0
INSERT
8
0
2
DUTPIN_1695
10
0.0000000
20
0.0000000
41
1.0000000
42
1.0000000
43
1.0000000
50
0.0000000
0
INSERT
8
0
2
P_S5D0T
10
6.5056063
20
5.2000000
41
1.0000000
42
1.0000000
43
1.0000000
50
180.0000000
0
ENDBLK
0
BLOCK
2
PIN128
8
0
70
0
10
0.0000000
20
0.0000000
0
INSERT
8
0
2
DUTPIN_1690
10
0.0000000
20
0.0000000
41
1.0000000
42
1.0000000
43
1.0000000
50
0.0000000
0
INSERT
8
0
2
P_S5D0T
10
6.4276063
20
5.1990000
41
1.0000000
42
1.0000000
43
1.0000000
50
180.0000000
0
ENDBLK
0
BLOCK
2
PIN84
8
0
70
0
10
0.0000000
20
0.0000000
0
INSERT
8
0
2
DUTPIN_1685
10
0.0000000
20
0.0000000
41
1.0000000
42
1.0000000
43
1.0000000
50
0.0000000
0
INSERT
8
0
2
P_S5D0T
10
6.4856063
20
4.7970000
41
1.0000000
42
1.0000000
43
1.0000000
50
0.0000000
0
ENDBLK
0
BLOCK
2
PIN83
8
0
70
0
10
0.0000000
20
0.0000000
0
INSERT
8
0
2
DUTPIN_1680
10
0.0000000
20
0.0000000
41
1.0000000
42
1.0000000
43
1.0000000
50
0.0000000
0
INSERT
8
0
2
P_S5D0T
10
6.4676063
20
4.8000000
41
1.0000000
42
1.0000000
43
1.0000000
50
0.0000000
0
ENDBLK
0
BLOCK
2
PIN86
8
0
70
0
10
0.0000000
20
0.0000000
0
INSERT
8
0
2
DUTPIN_1675
10
0.0000000
20
0.0000000
41
1.0000000
42
1.0000000
43
1.0000000
50
0.0000000
0
INSERT
8
0
2
P_S5D0T
10
6.5266063
20
4.7990000
41
1.0000000
42
1.0000000
43
1.0000000
50
0.0000000
0
ENDBLK
0
BLOCK
2
PIN85
8
0
70
0
10
0.0000000
20
0.0000000
0
INSERT
8
0
2
DUTPIN_1670
10
0.0000000
20
0.0000000
41
1.0000000
42
1.0000000
43
1.0000000
50
0.0000000
0
INSERT
8
0
2
P_S5D0T
10
6.5066063
20
4.8000000
41
1.0000000
42
1.0000000
43
1.0000000
50
0.0000000
0
ENDBLK
0
BLOCK
2
PIN82
8
0
70
0
10
0.0000000
20
0.0000000
0
INSERT
8
0
2
DUTPIN_1665
10
0.0000000
20
0.0000000
41
1.0000000
42
1.0000000
43
1.0000000
50
0.0000000
0
INSERT
8
0
2
P_S5D0T
10
6.4476063
20
4.7990000
41
1.0000000
42
1.0000000
43
1.0000000
50
270.0000000
0
ENDBLK
0
BLOCK
2
PIN81
8
0
70
0
10
0.0000000
20
0.0000000
0
INSERT
8
0
2
DUTPIN_1660
10
0.0000000
20
0.0000000
41
1.0000000
42
1.0000000
43
1.0000000
50
0.0000000
0
INSERT
8
0
2
P_S5D0T
10
6.4276063
20
4.8000000
41
1.0000000
42
1.0000000
43
1.0000000
50
270.0000000
0
ENDBLK
0
BLOCK
2
PIN79
8
0
70
0
10
0.0000000
20
0.0000000
0
INSERT
8
0
2
DUTPIN_1655
10
0.0000000
20
0.0000000
41
1.0000000
42
1.0000000
43
1.0000000
50
0.0000000
0
INSERT
8
0
2
P_S5D0T
10
6.3766063
20
4.8720000
41
1.0000000
42
1.0000000
43
1.0000000
50
270.0000000
0
ENDBLK
0
BLOCK
2
PIN80
8
0
70
0
10
0.0000000
20
0.0000000
0
INSERT
8
0
2
DUTPIN_1650
10
0.0000000
20
0.0000000
41
1.0000000
42
1.0000000
43
1.0000000
50
0.0000000
0
INSERT
8
0
2
P_S5D0T
10
6.3756063
20
4.8530000
41
1.0000000
42
1.0000000
43
1.0000000
50
270.0000000
0
ENDBLK
0
BLOCK
2
PIN77
8
0
70
0
10
0.0000000
20
0.0000000
0
INSERT
8
0
2
DUTPIN_1645
10
0.0000000
20
0.0000000
41
1.0000000
42
1.0000000
43
1.0000000
50
0.0000000
0
INSERT
8
0
2
P_S5D0T
10
6.3756063
20
4.9090000
41
1.0000000
42
1.0000000
43
1.0000000
50
270.0000000
0
ENDBLK
0
BLOCK
2
PIN89
8
0
70
0
10
0.0000000
20
0.0000000
0
INSERT
8
0
2
DUTPIN_1639
10
0.0000000
20
0.0000000
41
1.0000000
42
1.0000000
43
1.0000000
50
0.0000000
0
INSERT
8
0
2
P_S5D0T
10
6.5846063
20
4.7990000
41
1.0000000
42
1.0000000
43
1.0000000
50
0.0000000
0
ENDBLK
0
BLOCK
2
PIN88
8
0
70
0
10
0.0000000
20
0.0000000
0
INSERT
8
0
2
DUTPIN_1634
10
0.0000000
20
0.0000000
41
1.0000000
42
1.0000000
43
1.0000000
50
0.0000000
0
INSERT
8
0
2
P_S5D0T
10
6.5646063
20
4.7970000
41
1.0000000
42
1.0000000
43
1.0000000
50
0.0000000
0
ENDBLK
0
BLOCK
2
PIN87
8
0
70
0
10
0.0000000
20
0.0000000
0
INSERT
8
0
2
DUTPIN_1629
10
0.0000000
20
0.0000000
41
1.0000000
42
1.0000000
43
1.0000000
50
0.0000000
0
INSERT
8
0
2
P_S5D0T
10
6.5456063
20
4.7980000
41
1.0000000
42
1.0000000
43
1.0000000
50
0.0000000
0
ENDBLK
0
BLOCK
2
PIN90
8
0
70
0
10
0.0000000
20
0.0000000
0
INSERT
8
0
2
DUTPIN_1624
10
0.0000000
20
0.0000000
41
1.0000000
42
1.0000000
43
1.0000000
50
0.0000000
0
INSERT
8
0
2
P_S5D0T
10
6.6046063
20
4.7990000
41
1.0000000
42
1.0000000
43
1.0000000
50
0.0000000
0
ENDBLK
0
BLOCK
2
PIN119
8
0
70
0
10
0.0000000
20
0.0000000
0
INSERT
8
0
2
DUTPIN_1619
10
0.0000000
20
0.0000000
41
1.0000000
42
1.0000000
43
1.0000000
50
0.0000000
0
INSERT
8
0
2
P_S5D0T
10
6.6046063
20
5.1990000
41
1.0000000
42
1.0000000
43
1.0000000
50
180.0000000
0
ENDBLK
0
BLOCK
2
PIN127
8
0
70
0
10
0.0000000
20
0.0000000
0
INSERT
8
0
2
DUTPIN_1612
10
0.0000000
20
0.0000000
41
1.0000000
42
1.0000000
43
1.0000000
50
0.0000000
0
INSERT
8
0
2
P_S5D0T
10
6.4466063
20
5.1980000
41
1.0000000
42
1.0000000
43
1.0000000
50
180.0000000
0
ENDBLK
0
BLOCK
2
PIN122
8
0
70
0
10
0.0000000
20
0.0000000
0
INSERT
8
0
2
DUTPIN_1743
10
0.0000000
20
0.0000000
41
1.0000000
42
1.0000000
43
1.0000000
50
0.0000000
0
INSERT
8
0
2
P_S5D0T
10
6.5446063
20
5.1990000
41
1.0000000
42
1.0000000
43
1.0000000
50
180.0000000
0
ENDBLK
0
BLOCK
2
PIN121
8
0
70
0
10
0.0000000
20
0.0000000
0
INSERT
8
0
2
DUTPIN_1748
10
0.0000000
20
0.0000000
41
1.0000000
42
1.0000000
43
1.0000000
50
0.0000000
0
INSERT
8
0
2
P_S5D0T
10
6.5646063
20
5.2000000
41
1.0000000
42
1.0000000
43
1.0000000
50
180.0000000
0
ENDBLK
0
BLOCK
2
PIN78
8
0
70
0
10
0.0000000
20
0.0000000
0
INSERT
8
0
2
DUTPIN_1753
10
0.0000000
20
0.0000000
41
1.0000000
42
1.0000000
43
1.0000000
50
0.0000000
0
INSERT
8
0
2
P_S5D0T
10
6.3766063
20
4.8910000
41
1.0000000
42
1.0000000
43
1.0000000
50
270.0000000
0
ENDBLK
0
BLOCK
2
PIN75
8
0
70
0
10
0.0000000
20
0.0000000
0
INSERT
8
0
2
DUTPIN_1758
10
0.0000000
20
0.0000000
41
1.0000000
42
1.0000000
43
1.0000000
50
0.0000000
0
INSERT
8
0
2
P_S5D0T
10
6.3756063
20
4.9520000
41
1.0000000
42
1.0000000
43
1.0000000
50
270.0000000
0
ENDBLK
0
BLOCK
2
PIN76
8
0
70
0
10
0.0000000
20
0.0000000
0
INSERT
8
0
2
DUTPIN_1763
10
0.0000000
20
0.0000000
41
1.0000000
42
1.0000000
43
1.0000000
50
0.0000000
0
INSERT
8
0
2
P_S5D0T
10
6.3756063
20
4.9310000
41
1.0000000
42
1.0000000
43
1.0000000
50
270.0000000
0
ENDBLK
0
BLOCK
2
PIN73
8
0
70
0
10
0.0000000
20
0.0000000
0
INSERT
8
0
2
DUTPIN_1768
10
0.0000000
20
0.0000000
41
1.0000000
42
1.0000000
43
1.0000000
50
0.0000000
0
INSERT
8
0
2
P_S5D0T
10
6.3766063
20
4.9910000
41
1.0000000
42
1.0000000
43
1.0000000
50
270.0000000
0
ENDBLK
0
BLOCK
2
PIN74
8
0
70
0
10
0.0000000
20
0.0000000
0
INSERT
8
0
2
DUTPIN_1773
10
0.0000000
20
0.0000000
41
1.0000000
42
1.0000000
43
1.0000000
50
0.0000000
0
INSERT
8
0
2
P_S5D0T
10
6.3736063
20
4.9720000
41
1.0000000
42
1.0000000
43
1.0000000
50
270.0000000
0
ENDBLK
0
BLOCK
2
PIN70
8
0
70
0
10
0.0000000
20
0.0000000
0
INSERT
8
0
2
DUTPIN_1778
10
0.0000000
20
0.0000000
41
1.0000000
42
1.0000000
43
1.0000000
50
0.0000000
0
INSERT
8
0
2
P_S5D0T
10
6.3746063
20
5.0490000
41
1.0000000
42
1.0000000
43
1.0000000
50
270.0000000
0
ENDBLK
0
BLOCK
2
PIN66
8
0
70
0
10
0.0000000
20
0.0000000
0
INSERT
8
0
2
DUTPIN_1783
10
0.0000000
20
0.0000000
41
1.0000000
42
1.0000000
43
1.0000000
50
0.0000000
0
INSERT
8
0
2
P_S5D0T
10
6.3756063
20
5.1280000
41
1.0000000
42
1.0000000
43
1.0000000
50
270.0000000
0
ENDBLK
0
BLOCK
2
PIN123
8
0
70
0
10
0.0000000
20
0.0000000
0
INSERT
8
0
2
DUTPIN_1788
10
0.0000000
20
0.0000000
41
1.0000000
42
1.0000000
43
1.0000000
50
0.0000000
0
INSERT
8
0
2
P_S5D0T
10
6.5256063
20
5.1990000
41
1.0000000
42
1.0000000
43
1.0000000
50
180.0000000
0
ENDBLK
0
BLOCK
2
PIN71
8
0
70
0
10
0.0000000
20
0.0000000
0
INSERT
8
0
2
DUTPIN_1793
10
0.0000000
20
0.0000000
41
1.0000000
42
1.0000000
43
1.0000000
50
0.0000000
0
INSERT
8
0
2
P_S5D0T
10
6.3756063
20
5.0300000
41
1.0000000
42
1.0000000
43
1.0000000
50
270.0000000
0
ENDBLK
0
BLOCK
2
PIN120
8
0
70
0
10
0.0000000
20
0.0000000
0
INSERT
8
0
2
DUTPIN_1798
10
0.0000000
20
0.0000000
41
1.0000000
42
1.0000000
43
1.0000000
50
0.0000000
0
INSERT
8
0
2
P_S5D0T
10
6.5836063
20
5.1990000
41
1.0000000
42
1.0000000
43
1.0000000
50
180.0000000
0
ENDBLK
0
BLOCK
2
PIN65
8
0
70
0
10
0.0000000
20
0.0000000
0
INSERT
8
0
2
DUTPIN_1803
10
0.0000000
20
0.0000000
41
1.0000000
42
1.0000000
43
1.0000000
50
0.0000000
0
INSERT
8
0
2
P_S5D0T
10
6.3746063
20
5.1480000
41
1.0000000
42
1.0000000
43
1.0000000
50
270.0000000
0
ENDBLK
0
BLOCK
2
PIN69
8
0
70
0
10
0.0000000
20
0.0000000
0
INSERT
8
0
2
DUTPIN_1808
10
0.0000000
20
0.0000000
41
1.0000000
42
1.0000000
43
1.0000000
50
0.0000000
0
INSERT
8
0
2
P_S5D0T
10
6.3736063
20
5.0690000
41
1.0000000
42
1.0000000
43
1.0000000
50
270.0000000
0
ENDBLK
0
BLOCK
2
PIN67
8
0
70
0
10
0.0000000
20
0.0000000
0
INSERT
8
0
2
DUTPIN_1813
10
0.0000000
20
0.0000000
41
1.0000000
42
1.0000000
43
1.0000000
50
0.0000000
0
INSERT
8
0
2
P_S5D0T
10
6.3746063
20
5.1090000
41
1.0000000
42
1.0000000
43
1.0000000
50
270.0000000
0
ENDBLK
0
BLOCK
2
PIN68
8
0
70
0
10
0.0000000
20
0.0000000
0
INSERT
8
0
2
DUTPIN_1818
10
0.0000000
20
0.0000000
41
1.0000000
42
1.0000000
43
1.0000000
50
0.0000000
0
INSERT
8
0
2
P_S5D0T
10
6.3746063
20
5.0890000
41
1.0000000
42
1.0000000
43
1.0000000
50
270.0000000
0
ENDBLK
0
BLOCK
2
PIN72
8
0
70
0
10
0.0000000
20
0.0000000
0
INSERT
8
0
2
DUTPIN_1823
10
0.0000000
20
0.0000000
41
1.0000000
42
1.0000000
43
1.0000000
50
0.0000000
0
INSERT
8
0
2
P_S5D0T
10
6.3746063
20
5.0110000
41
1.0000000
42
1.0000000
43
1.0000000
50
270.0000000
0
ENDBLK
0
BLOCK
2
PIN126
8
0
70
0
10
0.0000000
20
0.0000000
0
INSERT
8
0
2
DUTPIN_1839
10
0.0000000
20
0.0000000
41
1.0000000
42
1.0000000
43
1.0000000
50
0.0000000
0
INSERT
8
0
2
P_S5D0T
10
6.4676063
20
5.1980000
41
1.0000000
42
1.0000000
43
1.0000000
50
180.0000000
0
ENDBLK
0
BLOCK
2
PIN125
8
0
70
0
10
0.0000000
20
0.0000000
0
INSERT
8
0
2
DUTPIN_1844
10
0.0000000
20
0.0000000
41
1.0000000
42
1.0000000
43
1.0000000
50
0.0000000
0
INSERT
8
0
2
P_S5D0T
10
6.4856063
20
5.2010000
41
1.0000000
42
1.0000000
43
1.0000000
50
180.0000000
0
ENDBLK
0
BLOCK
2
PIN97
8
0
70
0
10
0.0000000
20
0.0000000
0
INSERT
8
0
2
DUTPIN_1984
10
0.0000000
20
0.0000000
41
1.0000000
42
1.0000000
43
1.0000000
50
0.0000000
0
INSERT
8
0
2
P_S5D0T
10
6.7746063
20
4.8530000
41
1.0000000
42
1.0000000
43
1.0000000
50
0.0000000
0
ENDBLK
0
BLOCK
2
PIN99
8
0
70
0
10
0.0000000
20
0.0000000
0
INSERT
8
0
2
DUTPIN_1979
10
0.0000000
20
0.0000000
41
1.0000000
42
1.0000000
43
1.0000000
50
0.0000000
0
INSERT
8
0
2
P_S5D0T
10
6.7756063
20
4.8920000
41
1.0000000
42
1.0000000
43
1.0000000
50
90.0000000
0
ENDBLK
0
BLOCK
2
PIN98
8
0
70
0
10
0.0000000
20
0.0000000
0
INSERT
8
0
2
DUTPIN_1974
10
0.0000000
20
0.0000000
41
1.0000000
42
1.0000000
43
1.0000000
50
0.0000000
0
INSERT
8
0
2
P_S5D0T
10
6.7756063
20
4.8720000
41
1.0000000
42
1.0000000
43
1.0000000
50
90.0000000
0
ENDBLK
0
BLOCK
2
PIN101
8
0
70
0
10
0.0000000
20
0.0000000
0
INSERT
8
0
2
DUTPIN_1969
10
0.0000000
20
0.0000000
41
1.0000000
42
1.0000000
43
1.0000000
50
0.0000000
0
INSERT
8
0
2
P_S5D0T
10
6.7756063
20
4.9320000
41
1.0000000
42
1.0000000
43
1.0000000
50
90.0000000
0
ENDBLK
0
BLOCK
2
PIN100
8
0
70
0
10
0.0000000
20
0.0000000
0
INSERT
8
0
2
DUTPIN_1964
10
0.0000000
20
0.0000000
41
1.0000000
42
1.0000000
43
1.0000000
50
0.0000000
0
INSERT
8
0
2
P_S5D0T
10
6.7746063
20
4.9110000
41
1.0000000
42
1.0000000
43
1.0000000
50
90.0000000
0
ENDBLK
0
BLOCK
2
PIN91
8
0
70
0
10
0.0000000
20
0.0000000
0
INSERT
8
0
2
DUTPIN_1959
10
0.0000000
20
0.0000000
41
1.0000000
42
1.0000000
43
1.0000000
50
0.0000000
0
INSERT
8
0
2
P_S5D0T
10
6.6246063
20
4.7990000
41
1.0000000
42
1.0000000
43
1.0000000
50
0.0000000
0
ENDBLK
0
BLOCK
2
PIN92
8
0
70
0
10
0.0000000
20
0.0000000
0
INSERT
8
0
2
DUTPIN_1954
10
0.0000000
20
0.0000000
41
1.0000000
42
1.0000000
43
1.0000000
50
0.0000000
0
INSERT
8
0
2
P_S5D0T
10
6.6436063
20
4.7990000
41
1.0000000
42
1.0000000
43
1.0000000
50
0.0000000
0
ENDBLK
0
BLOCK
2
PIN93
8
0
70
0
10
0.0000000
20
0.0000000
0
INSERT
8
0
2
DUTPIN_1949
10
0.0000000
20
0.0000000
41
1.0000000
42
1.0000000
43
1.0000000
50
0.0000000
0
INSERT
8
0
2
P_S5D0T
10
6.6626063
20
4.7980000
41
1.0000000
42
1.0000000
43
1.0000000
50
0.0000000
0
ENDBLK
0
BLOCK
2
PIN94
8
0
70
0
10
0.0000000
20
0.0000000
0
INSERT
8
0
2
DUTPIN_1944
10
0.0000000
20
0.0000000
41
1.0000000
42
1.0000000
43
1.0000000
50
0.0000000
0
INSERT
8
0
2
P_S5D0T
10
6.6826063
20
4.7950000
41
1.0000000
42
1.0000000
43
1.0000000
50
0.0000000
0
ENDBLK
0
BLOCK
2
PIN95
8
0
70
0
10
0.0000000
20
0.0000000
0
INSERT
8
0
2
DUTPIN_1939
10
0.0000000
20
0.0000000
41
1.0000000
42
1.0000000
43
1.0000000
50
0.0000000
0
INSERT
8
0
2
P_S5D0T
10
6.7026063
20
4.7980000
41
1.0000000
42
1.0000000
43
1.0000000
50
0.0000000
0
ENDBLK
0
BLOCK
2
PIN96
8
0
70
0
10
0.0000000
20
0.0000000
0
INSERT
8
0
2
DUTPIN_1934
10
0.0000000
20
0.0000000
41
1.0000000
42
1.0000000
43
1.0000000
50
0.0000000
0
INSERT
8
0
2
P_S5D0T
10
6.7226063
20
4.7980000
41
1.0000000
42
1.0000000
43
1.0000000
50
0.0000000
0
ENDBLK
0
BLOCK
2
PIN113
8
0
70
0
10
0.0000000
20
0.0000000
0
INSERT
8
0
2
DUTPIN_1929
10
0.0000000
20
0.0000000
41
1.0000000
42
1.0000000
43
1.0000000
50
0.0000000
0
INSERT
8
0
2
P_S5D0T
10
6.7226063
20
5.2000000
41
1.0000000
42
1.0000000
43
1.0000000
50
180.0000000
0
ENDBLK
0
BLOCK
2
PIN114
8
0
70
0
10
0.0000000
20
0.0000000
0
INSERT
8
0
2
DUTPIN_1924
10
0.0000000
20
0.0000000
41
1.0000000
42
1.0000000
43
1.0000000
50
0.0000000
0
INSERT
8
0
2
P_S5D0T
10
6.7036063
20
5.2000000
41
1.0000000
42
1.0000000
43
1.0000000
50
180.0000000
0
ENDBLK
0
BLOCK
2
PIN115
8
0
70
0
10
0.0000000
20
0.0000000
0
INSERT
8
0
2
DUTPIN_1919
10
0.0000000
20
0.0000000
41
1.0000000
42
1.0000000
43
1.0000000
50
0.0000000
0
INSERT
8
0
2
P_S5D0T
10
6.6836063
20
5.2000000
41
1.0000000
42
1.0000000
43
1.0000000
50
180.0000000
0
ENDBLK
0
BLOCK
2
PIN116
8
0
70
0
10
0.0000000
20
0.0000000
0
INSERT
8
0
2
DUTPIN_1914
10
0.0000000
20
0.0000000
41
1.0000000
42
1.0000000
43
1.0000000
50
0.0000000
0
INSERT
8
0
2
P_S5D0T
10
6.6636063
20
5.1990000
41
1.0000000
42
1.0000000
43
1.0000000
50
180.0000000
0
ENDBLK
0
BLOCK
2
PIN117
8
0
70
0
10
0.0000000
20
0.0000000
0
INSERT
8
0
2
DUTPIN_1909
10
0.0000000
20
0.0000000
41
1.0000000
42
1.0000000
43
1.0000000
50
0.0000000
0
INSERT
8
0
2
P_S5D0T
10
6.6436063
20
5.1990000
41
1.0000000
42
1.0000000
43
1.0000000
50
180.0000000
0
ENDBLK
0
BLOCK
2
PIN118
8
0
70
0
10
0.0000000
20
0.0000000
0
INSERT
8
0
2
DUTPIN_1904
10
0.0000000
20
0.0000000
41
1.0000000
42
1.0000000
43
1.0000000
50
0.0000000
0
INSERT
8
0
2
P_S5D0T
10
6.6246063
20
5.1990000
41
1.0000000
42
1.0000000
43
1.0000000
50
180.0000000
0
ENDBLK
0
BLOCK
2
PIN111
8
0
70
0
10
0.0000000
20
0.0000000
0
INSERT
8
0
2
DUTPIN_1899
10
0.0000000
20
0.0000000
41
1.0000000
42
1.0000000
43
1.0000000
50
0.0000000
0
INSERT
8
0
2
P_S5D0T
10
6.7736063
20
5.1280000
41
1.0000000
42
1.0000000
43
1.0000000
50
90.0000000
0
ENDBLK
0
BLOCK
2
PIN112
8
0
70
0
10
0.0000000
20
0.0000000
0
INSERT
8
0
2
DUTPIN_1894
10
0.0000000
20
0.0000000
41
1.0000000
42
1.0000000
43
1.0000000
50
0.0000000
0
INSERT
8
0
2
P_S5D0T
10
6.7766063
20
5.1480000
41
1.0000000
42
1.0000000
43
1.0000000
50
180.0000000
0
ENDBLK
0
BLOCK
2
PIN107
8
0
70
0
10
0.0000000
20
0.0000000
0
INSERT
8
0
2
DUTPIN_1889
10
0.0000000
20
0.0000000
41
1.0000000
42
1.0000000
43
1.0000000
50
0.0000000
0
INSERT
8
0
2
P_S5D0T
10
6.7756063
20
5.0490000
41
1.0000000
42
1.0000000
43
1.0000000
50
90.0000000
0
ENDBLK
0
BLOCK
2
PIN108
8
0
70
0
10
0.0000000
20
0.0000000
0
INSERT
8
0
2
DUTPIN_1884
10
0.0000000
20
0.0000000
41
1.0000000
42
1.0000000
43
1.0000000
50
0.0000000
0
INSERT
8
0
2
P_S5D0T
10
6.7746063
20
5.0690000
41
1.0000000
42
1.0000000
43
1.0000000
50
90.0000000
0
ENDBLK
0
BLOCK
2
PIN109
8
0
70
0
10
0.0000000
20
0.0000000
0
INSERT
8
0
2
DUTPIN_1879
10
0.0000000
20
0.0000000
41
1.0000000
42
1.0000000
43
1.0000000
50
0.0000000
0
INSERT
8
0
2
P_S5D0T
10
6.7756063
20
5.0890000
41
1.0000000
42
1.0000000
43
1.0000000
50
90.0000000
0
ENDBLK
0
BLOCK
2
PIN110
8
0
70
0
10
0.0000000
20
0.0000000
0
INSERT
8
0
2
DUTPIN_1874
10
0.0000000
20
0.0000000
41
1.0000000
42
1.0000000
43
1.0000000
50
0.0000000
0
INSERT
8
0
2
P_S5D0T
10
6.7756063
20
5.1090000
41
1.0000000
42
1.0000000
43
1.0000000
50
90.0000000
0
ENDBLK
0
BLOCK
2
PIN106
8
0
70
0
10
0.0000000
20
0.0000000
0
INSERT
8
0
2
DUTPIN_1869
10
0.0000000
20
0.0000000
41
1.0000000
42
1.0000000
43
1.0000000
50
0.0000000
0
INSERT
8
0
2
P_S5D0T
10
6.7746063
20
5.0300000
41
1.0000000
42
1.0000000
43
1.0000000
50
90.0000000
0
ENDBLK
0
BLOCK
2
PIN105
8
0
70
0
10
0.0000000
20
0.0000000
0
INSERT
8
0
2
DUTPIN_1864
10
0.0000000
20
0.0000000
41
1.0000000
42
1.0000000
43
1.0000000
50
0.0000000
0
INSERT
8
0
2
P_S5D0T
10
6.7736063
20
5.0100000
41
1.0000000
42
1.0000000
43
1.0000000
50
90.0000000
0
ENDBLK
0
BLOCK
2
PIN102
8
0
70
0
10
0.0000000
20
0.0000000
0
INSERT
8
0
2
DUTPIN_1859
10
0.0000000
20
0.0000000
41
1.0000000
42
1.0000000
43
1.0000000
50
0.0000000
0
INSERT
8
0
2
P_S5D0T
10
6.7736063
20
4.9500000
41
1.0000000
42
1.0000000
43
1.0000000
50
90.0000000
0
ENDBLK
0
BLOCK
2
PIN104
8
0
70
0
10
0.0000000
20
0.0000000
0
INSERT
8
0
2
DUTPIN_1854
10
0.0000000
20
0.0000000
41
1.0000000
42
1.0000000
43
1.0000000
50
0.0000000
0
INSERT
8
0
2
P_S5D0T
10
6.7766063
20
4.9890000
41
1.0000000
42
1.0000000
43
1.0000000
50
90.0000000
0
ENDBLK
0
BLOCK
2
PIN103
8
0
70
0
10
0.0000000
20
0.0000000
0
INSERT
8
0
2
DUTPIN_1849
10
0.0000000
20
0.0000000
41
1.0000000
42
1.0000000
43
1.0000000
50
0.0000000
0
INSERT
8
0
2
P_S5D0T
10
6.7766063
20
4.9680000
41
1.0000000
42
1.0000000
43
1.0000000
50
90.0000000
0
ENDBLK
0
BLOCK
2
2
8
0
70
0
10
0.0000000
20
0.0000000
0
INSERT
8
0
2
PTARGET_2092
10
0.0000000
20
0.0000000
41
1.0000000
42
1.0000000
43
1.0000000
50
0.0000000
0
ENDBLK
0
BLOCK
2
RF1S1
8
0
70
0
10
0.0000000
20
0.0000000
0
INSERT
8
0
2
DUCOAX4_2113
10
0.0000000
20
0.0000000
41
1.0000000
42
1.0000000
43
1.0000000
50
0.0000000
0
INSERT
8
0
2
P_S50D0T_F
10
4.2200000
20
7.6200000
41
1.0000000
42
1.0000000
43
1.0000000
50
-90.0000000
0
INSERT
8
0
2
P_C26D10
10
4.1800000
20
7.7400000
41
1.0000000
42
1.0000000
43
1.0000000
50
270.0000000
0
INSERT
8
0
2
P_C26D10
10
4.0550000
20
7.7400000
41
1.0000000
42
1.0000000
43
1.0000000
50
270.0000000
0
INSERT
8
0
2
P_C40D0B
10
4.1200000
20
7.6500000
41
1.0000000
42
1.0000000
43
1.0000000
50
270.0000000
0
INSERT
8
0
2
P_C26D10
10
3.9400000
20
7.8350000
41
1.0000000
42
1.0000000
43
1.0000000
50
270.0000000
0
INSERT
8
0
2
P_C26D10
10
3.8150000
20
7.8350000
41
1.0000000
42
1.0000000
43
1.0000000
50
270.0000000
0
INSERT
8
0
2
P_C40D0B
10
3.8800000
20
7.7450000
41
1.0000000
42
1.0000000
43
1.0000000
50
270.0000000
0
INSERT
8
0
2
P_C26D10
10
4.2200000
20
7.6200000
41
1.0000000
42
1.0000000
43
1.0000000
50
270.0000000
0
INSERT
8
0
2
P_C26D10
10
4.0000000
20
7.6200000
41
1.0000000
42
1.0000000
43
1.0000000
50
0.0000000
0
INSERT
8
0
2
P_C26D10
10
3.7800000
20
7.6200000
41
1.0000000
42
1.0000000
43
1.0000000
50
0.0000000
0
INSERT
8
0
2
P_S50D0T_F
10
4.0000000
20
7.6200000
41
1.0000000
42
1.0000000
43
1.0000000
50
-90.0000000
0
INSERT
8
0
2
P_S50D0T_F
10
3.7800000
20
7.6200000
41
1.0000000
42
1.0000000
43
1.0000000
50
-90.0000000
0
INSERT
8
0
2
P_C150D1251
10
4.0000000
20
7.9500000
41
1.0000000
42
1.0000000
43
1.0000000
50
90.0000000
0
ENDBLK
0
BLOCK
2
1
8
0
70
0
10
0.0000000
20
0.0000000
0
INSERT
8
0
2
PTARGET_2169
10
0.0000000
20
0.0000000
41
1.0000000
42
1.0000000
43
1.0000000
50
0.0000000
0
ENDBLK
0
BLOCK
2
RF1S3
8
0
70
0
10
0.0000000
20
0.0000000
0
INSERT
8
0
2
DUTCOAX5_2191
10
0.0000000
20
0.0000000
41
1.0000000
42
1.0000000
43
1.0000000
50
0.0000000
0
INSERT
8
0
2
P_C26D10__1_
10
7.7700000
20
3.4400000
41
1.0000000
42
1.0000000
43
1.0000000
50
180.0000000
0
INSERT
8
0
2
P_C26D10__1_
10
7.7700000
20
3.5650000
41
1.0000000
42
1.0000000
43
1.0000000
50
180.0000000
0
INSERT
8
0
2
P_C15D0B
10
7.6930000
20
3.5000000
41
1.0000000
42
1.0000000
43
1.0000000
50
180.0000000
0
INSERT
8
0
2
P_C150D125
10
7.9500000
20
3.5000000
41
1.0000000
42
1.0000000
43
1.0000000
50
270.0000000
0
INSERT
8
0
2
P_C26D10__1_
10
7.7000000
20
3.3600000
41
1.0000000
42
1.0000000
43
1.0000000
50
270.0000000
0
INSERT
8
0
2
P_C26D10__1_
10
7.7000000
20
3.3900000
41
1.0000000
42
1.0000000
43
1.0000000
50
270.0000000
0
INSERT
8
0
2
P_C26D10__1_
10
7.6400000
20
3.4000000
41
1.0000000
42
1.0000000
43
1.0000000
50
180.0000000
0
INSERT
8
0
2
P_C26D10__1_
10
7.6400000
20
3.3500000
41
1.0000000
42
1.0000000
43
1.0000000
50
180.0000000
0
INSERT
8
0
2
P_R50X100D0T
10
7.6700000
20
3.3750000
41
1.0000000
42
1.0000000
43
1.0000000
50
0.0000000
0
INSERT
8
0
2
P_R50X100D0T
10
7.6700000
20
3.6250000
41
1.0000000
42
1.0000000
43
1.0000000
50
180.0000000
0
INSERT
8
0
2
P_C26D10__1_
10
7.6400000
20
3.6000000
41
1.0000000
42
1.0000000
43
1.0000000
50
180.0000000
0
INSERT
8
0
2
P_C26D10__1_
10
7.6400000
20
3.6500000
41
1.0000000
42
1.0000000
43
1.0000000
50
270.0000000
0
INSERT
8
0
2
P_C26D10__1_
10
7.7000000
20
3.6100000
41
1.0000000
42
1.0000000
43
1.0000000
50
270.0000000
0
INSERT
8
0
2
P_C26D10__1_
10
7.7000000
20
3.6400000
41
1.0000000
42
1.0000000
43
1.0000000
50
270.0000000
0
ENDBLK
0
ENDSEC
0
SECTION
2
ENTITIES
0
INSERT
8
0
2
3
10
0.0000000
20
0.0000000
41
1.0000000
42
1.0000000
43
1.0000000
50
0.0000000
0
INSERT
8
0
2
P_SMASK1
10
2.5550000
20
3.5000000
41
1.0000000
42
1.0000000
43
1.0000000
50
90.0000000
0
INSERT
8
0
2
P_SMASK1
10
3.5000000
20
2.5550000
41
1.0000000
42
1.0000000
43
1.0000000
50
180.0000000
0
INSERT
8
0
2
via261
10
2.8250000
20
2.6050000
41
1.0000000
42
1.0000000
43
1.0000000
50
0.0000000
0
INSERT
8
0
2
via261
10
2.8250000
20
2.5000000
41
1.0000000
42
1.0000000
43
1.0000000
50
0.0000000
0
INSERT
8
0
2
via261
10
3.1650000
20
2.6050000
41
1.0000000
42
1.0000000
43
1.0000000
50
0.0000000
0
INSERT
8
0
2
via261
10
3.1650000
20
2.5000000
41
1.0000000
42
1.0000000
43
1.0000000
50
0.0000000
0
INSERT
8
0
2
via261
10
2.5000000
20
3.1650000
41
1.0000000
42
1.0000000
43
1.0000000
50
90.0000000
0
INSERT
8
0
2
via261
10
2.6050000
20
3.1650000
41
1.0000000
42
1.0000000
43
1.0000000
50
90.0000000
0
INSERT
8
0
2
via261
10
2.5000000
20
2.8250000
41
1.0000000
42
1.0000000
43
1.0000000
50
90.0000000
0
INSERT
8
0
2
via261
10
2.6050000
20
2.8250000
41
1.0000000
42
1.0000000
43
1.0000000
50
90.0000000
0
INSERT
8
0
2
SN1
10
0.0000000
20
0.0000000
41
1.0000000
42
1.0000000
43
1.0000000
50
0.0000000
0
INSERT
8
0
2
P_C210U__2_
10
1.9150000
20
1.9150000
41
1.0000000
42
1.0000000
43
1.0000000
50
0.0000000
0
INSERT
8
0
2
P_C150D1251
10
1.8500000
20
2.6000000
41
1.0000000
42
1.0000000
43
1.0000000
50
0.0000000
0
INSERT
8
0
2
DP4
10
0.0000000
20
0.0000000
41
1.0000000
42
1.0000000
43
1.0000000
50
0.0000000
0
INSERT
8
0
2
P_C126D126U__2_
10
3.3102756
20
6.7708268
41
1.0000000
42
1.0000000
43
1.0000000
50
0.0000000
0
INSERT
8
0
2
P_C126D126U__2_
10
3.7902756
20
6.7708268
41
1.0000000
42
1.0000000
43
1.0000000
50
0.0000000
0
INSERT
8
0
2
P_C65U
10
2.3950000
20
5.8300000
41
1.0000000
42
1.0000000
43
1.0000000
50
270.0000000
0
INSERT
8
0
2
P_SMASK1
10
2.5550000
20
6.5000000
41
1.0000000
42
1.0000000
43
1.0000000
50
90.0000000
0
INSERT
8
0
2
P_SMASK1
10
3.5000000
20
7.4550000
41
1.0000000
42
1.0000000
43
1.0000000
50
180.0000000
0
INSERT
8
0
2
via261
10
3.1650000
20
7.5000000
41
1.0000000
42
1.0000000
43
1.0000000
50
0.0000000
0
INSERT
8
0
2
via261
10
3.1650000
20
7.3950000
41
1.0000000
42
1.0000000
43
1.0000000
50
0.0000000
0
INSERT
8
0
2
via261
10
2.5000000
20
6.8350000
41
1.0000000
42
1.0000000
43
1.0000000
50
90.0000000
0
INSERT
8
0
2
via261
10
2.6050000
20
6.8350000
41
1.0000000
42
1.0000000
43
1.0000000
50
90.0000000
0
INSERT
8
0
2
via261
10
2.5000000
20
7.1750000
41
1.0000000
42
1.0000000
43
1.0000000
50
90.0000000
0
INSERT
8
0
2
via261
10
2.6050000
20
7.1750000
41
1.0000000
42
1.0000000
43
1.0000000
50
90.0000000
0
INSERT
8
0
2
via261
10
2.8250000
20
7.5000000
41
1.0000000
42
1.0000000
43
1.0000000
50
0.0000000
0
INSERT
8
0
2
via261
10
2.8250000
20
7.3950000
41
1.0000000
42
1.0000000
43
1.0000000
50
0.0000000
0
INSERT
8
0
2
via261
10
2.5000000
20
5.8350000
41
1.0000000
42
1.0000000
43
1.0000000
50
90.0000000
0
INSERT
8
0
2
via261
10
2.6050000
20
5.8350000
41
1.0000000
42
1.0000000
43
1.0000000
50
90.0000000
0
INSERT
8
0
2
via261
10
2.5000000
20
6.1650000
41
1.0000000
42
1.0000000
43
1.0000000
50
90.0000000
0
INSERT
8
0
2
via261
10
2.6050000
20
6.1650000
41
1.0000000
42
1.0000000
43
1.0000000
50
90.0000000
0
INSERT
8
0
2
U3
10
0.0000000
20
0.0000000
41
1.0000000
42
1.0000000
43
1.0000000
50
0.0000000
0
INSERT
8
0
2
P_C65U
10
2.1550000
20
6.1700000
41
1.0000000
42
1.0000000
43
1.0000000
50
270.0000000
0
INSERT
8
0
2
P_C126D126U
10
2.1550000
20
5.8300000
41
1.0000000
42
1.0000000
43
1.0000000
50
90.0000000
0
INSERT
8
0
2
P_C126D126U
10
2.3950000
20
6.1700000
41
1.0000000
42
1.0000000
43
1.0000000
50
90.0000000
0
INSERT
8
0
2
P_C35D25
10
2.3175000
20
6.0425000
41
1.0000000
42
1.0000000
43
1.0000000
50
180.0000000
0
INSERT
8
0
2
P_C35D25
10
2.3175000
20
5.9575000
41
1.0000000
42
1.0000000
43
1.0000000
50
180.0000000
0
INSERT
8
0
2
P_C35D25
10
2.2325000
20
5.9575000
41
1.0000000
42
1.0000000
43
1.0000000
50
180.0000000
0
INSERT
8
0
2
P_C35D25
10
2.2325000
20
6.0425000
41
1.0000000
42
1.0000000
43
1.0000000
50
180.0000000
0
INSERT
8
0
2
via26
10
2.4150000
20
6.0450000
41
1.0000000
42
1.0000000
43
1.0000000
50
0.0000000
0
INSERT
8
0
2
via26
10
2.4150000
20
5.9550000
41
1.0000000
42
1.0000000
43
1.0000000
50
0.0000000
0
INSERT
8
0
2
P_SMASK1
10
2.5550000
20
4.5000000
41
1.0000000
42
1.0000000
43
1.0000000
50
90.0000000
0
INSERT
8
0
2
P_C1_55U__1_
10
2.7559000
20
4.3307000
41
1.0000000
42
1.0000000
43
1.0000000
50
0.0000000
0
INSERT
8
0
2
P_C5_0D2_5__1_
10
2.9252000
20
4.5000000
41
1.0000000
42
1.0000000
43
1.0000000
50
0.0000000
0
INSERT
8
0
2
via261
10
2.5000000
20
3.8350000
41
1.0000000
42
1.0000000
43
1.0000000
50
90.0000000
0
INSERT
8
0
2
via261
10
2.6050000
20
3.8350000
41
1.0000000
42
1.0000000
43
1.0000000
50
90.0000000
0
INSERT
8
0
2
via261
10
2.5000000
20
4.1650000
41
1.0000000
42
1.0000000
43
1.0000000
50
90.0000000
0
INSERT
8
0
2
via261
10
2.6050000
20
4.1650000
41
1.0000000
42
1.0000000
43
1.0000000
50
90.0000000
0
INSERT
8
0
2
P_SMASK1
10
2.5550000
20
5.5000000
41
1.0000000
42
1.0000000
43
1.0000000
50
90.0000000
0
INSERT
8
0
2
P_C1_55U__1_
10
2.7559000
20
5.6693000
41
1.0000000
42
1.0000000
43
1.0000000
50
0.0000000
0
INSERT
8
0
2
P_C5_0D2_5__1_
10
2.9252000
20
5.5000000
41
1.0000000
42
1.0000000
43
1.0000000
50
0.0000000
0
INSERT
8
0
2
via261
10
2.5000000
20
4.8350000
41
1.0000000
42
1.0000000
43
1.0000000
50
90.0000000
0
INSERT
8
0
2
via261
10
2.6050000
20
4.8350000
41
1.0000000
42
1.0000000
43
1.0000000
50
90.0000000
0
INSERT
8
0
2
via261
10
2.5000000
20
5.1650000
41
1.0000000
42
1.0000000
43
1.0000000
50
90.0000000
0
INSERT
8
0
2
via261
10
2.6050000
20
5.1650000
41
1.0000000
42
1.0000000
43
1.0000000
50
90.0000000
0
INSERT
8
0
2
P_C150D1251
10
2.0500000
20
5.0000000
41
1.0000000
42
1.0000000
43
1.0000000
50
90.0000000
0
INSERT
8
0
2
RF1
10
0.0000000
20
0.0000000
41
1.0000000
42
1.0000000
43
1.0000000
50
0.0000000
0
INSERT
8
0
2
PIN15
10
0.0000000
20
0.0000000
41
1.0000000
42
1.0000000
43
1.0000000
50
0.0000000
0
INSERT
8
0
2
PIN14
10
0.0000000
20
0.0000000
41
1.0000000
42
1.0000000
43
1.0000000
50
0.0000000
0
INSERT
8
0
2
PIN13
10
0.0000000
20
0.0000000
41
1.0000000
42
1.0000000
43
1.0000000
50
0.0000000
0
INSERT
8
0
2
PIN12
10
0.0000000
20
0.0000000
41
1.0000000
42
1.0000000
43
1.0000000
50
0.0000000
0
INSERT
8
0
2
PIN11
10
0.0000000
20
0.0000000
41
1.0000000
42
1.0000000
43
1.0000000
50
0.0000000
0
INSERT
8
0
2
PIN10
10
0.0000000
20
0.0000000
41
1.0000000
42
1.0000000
43
1.0000000
50
0.0000000
0
INSERT
8
0
2
PIN9
10
0.0000000
20
0.0000000
41
1.0000000
42
1.0000000
43
1.0000000
50
0.0000000
0
INSERT
8
0
2
PIN8
10
0.0000000
20
0.0000000
41
1.0000000
42
1.0000000
43
1.0000000
50
0.0000000
0
INSERT
8
0
2
PIN2
10
0.0000000
20
0.0000000
41
1.0000000
42
1.0000000
43
1.0000000
50
0.0000000
0
INSERT
8
0
2
PIN1
10
0.0000000
20
0.0000000
41
1.0000000
42
1.0000000
43
1.0000000
50
0.0000000
0
INSERT
8
0
2
PIN3
10
0.0000000
20
0.0000000
41
1.0000000
42
1.0000000
43
1.0000000
50
0.0000000
0
INSERT
8
0
2
PIN4
10
0.0000000
20
0.0000000
41
1.0000000
42
1.0000000
43
1.0000000
50
0.0000000
0
INSERT
8
0
2
PIN5
10
0.0000000
20
0.0000000
41
1.0000000
42
1.0000000
43
1.0000000
50
0.0000000
0
INSERT
8
0
2
PIN6
10
0.0000000
20
0.0000000
41
1.0000000
42
1.0000000
43
1.0000000
50
0.0000000
0
INSERT
8
0
2
PIN7
10
0.0000000
20
0.0000000
41
1.0000000
42
1.0000000
43
1.0000000
50
0.0000000
0
INSERT
8
0
2
PIN62
10
0.0000000
20
0.0000000
41
1.0000000
42
1.0000000
43
1.0000000
50
0.0000000
0
INSERT
8
0
2
PIN63
10
0.0000000
20
0.0000000
41
1.0000000
42
1.0000000
43
1.0000000
50
0.0000000
0
INSERT
8
0
2
PIN64
10
0.0000000
20
0.0000000
41
1.0000000
42
1.0000000
43
1.0000000
50
0.0000000
0
INSERT
8
0
2
PIN18
10
0.0000000
20
0.0000000
41
1.0000000
42
1.0000000
43
1.0000000
50
0.0000000
0
INSERT
8
0
2
PIN19
10
0.0000000
20
0.0000000
41
1.0000000
42
1.0000000
43
1.0000000
50
0.0000000
0
INSERT
8
0
2
PIN17
10
0.0000000
20
0.0000000
41
1.0000000
42
1.0000000
43
1.0000000
50
0.0000000
0
INSERT
8
0
2
P_X1_92Y_34MM
10
3.2249213
20
4.9311102
41
1.0000000
42
1.0000000
43
1.0000000
50
0.0000000
0
INSERT
8
0
2
P_X1_92Y_34MM
10
3.2249213
20
4.9114252
41
1.0000000
42
1.0000000
43
1.0000000
50
0.0000000
0
INSERT
8
0
2
P_X1_92Y_34MM
10
3.2249213
20
4.8523701
41
1.0000000
42
1.0000000
43
1.0000000
50
0.0000000
0
INSERT
8
0
2
P_X1_92Y_34MM
10
3.2249213
20
4.8720551
41
1.0000000
42
1.0000000
43
1.0000000
50
0.0000000
0
INSERT
8
0
2
P_X1_92Y_34MM
10
3.2249213
20
4.8917402
41
1.0000000
42
1.0000000
43
1.0000000
50
0.0000000
0
INSERT
8
0
2
P_X1_92Y_34MM
10
3.2249213
20
4.9901654
41
1.0000000
42
1.0000000
43
1.0000000
50
0.0000000
0
INSERT
8
0
2
P_X1_92Y_34MM
10
3.2249213
20
4.9704803
41
1.0000000
42
1.0000000
43
1.0000000
50
0.0000000
0
INSERT
8
0
2
P_X1_92Y_34MM
10
3.2249213
20
4.9507953
41
1.0000000
42
1.0000000
43
1.0000000
50
0.0000000
0
INSERT
8
0
2
via20
10
3.1433937
20
4.9680000
41
1.0000000
42
1.0000000
43
1.0000000
50
0.0000000
0
INSERT
8
0
2
via20
10
3.1433937
20
4.9290000
41
1.0000000
42
1.0000000
43
1.0000000
50
0.0000000
0
INSERT
8
0
2
via20
10
3.1623937
20
4.9100000
41
1.0000000
42
1.0000000
43
1.0000000
50
0.0000000
0
INSERT
8
0
2
via20
10
3.1453937
20
4.8900000
41
1.0000000
42
1.0000000
43
1.0000000
50
0.0000000
0
INSERT
8
0
2
via20
10
3.1623937
20
4.8700000
41
1.0000000
42
1.0000000
43
1.0000000
50
0.0000000
0
INSERT
8
0
2
via20
10
3.1453937
20
4.8500000
41
1.0000000
42
1.0000000
43
1.0000000
50
0.0000000
0
INSERT
8
0
2
via20
10
3.1603937
20
5.0290000
41
1.0000000
42
1.0000000
43
1.0000000
50
0.0000000
0
INSERT
8
0
2
via20
10
3.1423937
20
5.0480000
41
1.0000000
42
1.0000000
43
1.0000000
50
0.0000000
0
INSERT
8
0
2
via20
10
3.1623937
20
4.9500000
41
1.0000000
42
1.0000000
43
1.0000000
50
0.0000000
0
INSERT
8
0
2
via20
10
3.1613937
20
4.9900000
41
1.0000000
42
1.0000000
43
1.0000000
50
0.0000000
0
INSERT
8
0
2
via20
10
3.1423937
20
5.0080000
41
1.0000000
42
1.0000000
43
1.0000000
50
0.0000000
0
INSERT
8
0
2
via20
10
3.1423937
20
5.0870000
41
1.0000000
42
1.0000000
43
1.0000000
50
0.0000000
0
INSERT
8
0
2
via20
10
3.1603937
20
5.0680000
41
1.0000000
42
1.0000000
43
1.0000000
50
0.0000000
0
INSERT
8
0
2
via20
10
3.1623937
20
5.1070000
41
1.0000000
42
1.0000000
43
1.0000000
50
0.0000000
0
INSERT
8
0
2
via20
10
3.1443937
20
5.1260000
41
1.0000000
42
1.0000000
43
1.0000000
50
0.0000000
0
INSERT
8
0
2
via20
10
3.1603937
20
5.1480000
41
1.0000000
42
1.0000000
43
1.0000000
50
0.0000000
0
INSERT
8
0
2
P_X1_92Y_34MM
10
3.2775591
20
5.2002835
41
1.0000000
42
1.0000000
43
1.0000000
50
90.0000000
0
INSERT
8
0
2
P_X1_92Y_34MM
10
3.2249213
20
5.0885906
41
1.0000000
42
1.0000000
43
1.0000000
50
0.0000000
0
INSERT
8
0
2
P_X1_92Y_34MM
10
3.2249213
20
5.1082756
41
1.0000000
42
1.0000000
43
1.0000000
50
0.0000000
0
INSERT
8
0
2
P_X1_92Y_34MM
10
3.2249213
20
5.1279606
41
1.0000000
42
1.0000000
43
1.0000000
50
0.0000000
0
INSERT
8
0
2
P_X1_92Y_34MM
10
3.2249213
20
5.1476457
41
1.0000000
42
1.0000000
43
1.0000000
50
0.0000000
0
INSERT
8
0
2
via20
10
3.2773937
20
4.7330000
41
1.0000000
42
1.0000000
43
1.0000000
50
90.0000000
0
INSERT
8
0
2
P_X1_92Y_34MM
10
3.2775591
20
4.7997323
41
1.0000000
42
1.0000000
43
1.0000000
50
90.0000000
0
INSERT
8
0
2
via20
10
3.2983937
20
4.7160000
41
1.0000000
42
1.0000000
43
1.0000000
50
90.0000000
0
INSERT
8
0
2
P_X1_92Y_34MM
10
3.2249213
20
5.0098504
41
1.0000000
42
1.0000000
43
1.0000000
50
0.0000000
0
INSERT
8
0
2
P_X1_92Y_34MM
10
3.2249213
20
5.0295354
41
1.0000000
42
1.0000000
43
1.0000000
50
0.0000000
0
INSERT
8
0
2
P_X1_92Y_34MM
10
3.2249213
20
5.0492205
41
1.0000000
42
1.0000000
43
1.0000000
50
0.0000000
0
INSERT
8
0
2
PIN16
10
0.0000000
20
0.0000000
41
1.0000000
42
1.0000000
43
1.0000000
50
0.0000000
0
INSERT
8
0
2
P_X1_92Y_34MM
10
3.2249213
20
5.0689055
41
1.0000000
42
1.0000000
43
1.0000000
50
0.0000000
0
INSERT
8
0
2
via20
10
3.2753937
20
5.2800000
41
1.0000000
42
1.0000000
43
1.0000000
50
270.0000000
0
INSERT
8
0
2
via20
10
3.2953937
20
5.2630000
41
1.0000000
42
1.0000000
43
1.0000000
50
270.0000000
0
INSERT
8
0
2
via20
10
3.5123937
20
5.2840000
41
1.0000000
42
1.0000000
43
1.0000000
50
270.0000000
0
INSERT
8
0
2
via20
10
3.5733937
20
5.2650000
41
1.0000000
42
1.0000000
43
1.0000000
50
270.0000000
0
INSERT
8
0
2
via20
10
3.5513937
20
5.2810000
41
1.0000000
42
1.0000000
43
1.0000000
50
270.0000000
0
INSERT
8
0
2
via20
10
3.4543937
20
5.2650000
41
1.0000000
42
1.0000000
43
1.0000000
50
270.0000000
0
INSERT
8
0
2
via20
10
3.5323937
20
5.2630000
41
1.0000000
42
1.0000000
43
1.0000000
50
270.0000000
0
INSERT
8
0
2
via20
10
3.4933937
20
5.2650000
41
1.0000000
42
1.0000000
43
1.0000000
50
270.0000000
0
INSERT
8
0
2
via20
10
3.4333937
20
5.2830000
41
1.0000000
42
1.0000000
43
1.0000000
50
270.0000000
0
INSERT
8
0
2
via20
10
3.4733937
20
5.2840000
41
1.0000000
42
1.0000000
43
1.0000000
50
270.0000000
0
INSERT
8
0
2
via20
10
3.3943937
20
5.2810000
41
1.0000000
42
1.0000000
43
1.0000000
50
270.0000000
0
INSERT
8
0
2
via20
10
3.4153937
20
5.2640000
41
1.0000000
42
1.0000000
43
1.0000000
50
270.0000000
0
INSERT
8
0
2
via20
10
3.3543937
20
5.2820000
41
1.0000000
42
1.0000000
43
1.0000000
50
270.0000000
0
INSERT
8
0
2
via20
10
3.3353937
20
5.2630000
41
1.0000000
42
1.0000000
43
1.0000000
50
270.0000000
0
INSERT
8
0
2
via20
10
3.3153937
20
5.2800000
41
1.0000000
42
1.0000000
43
1.0000000
50
270.0000000
0
INSERT
8
0
2
via20
10
3.3753937
20
5.2630000
41
1.0000000
42
1.0000000
43
1.0000000
50
270.0000000
0
INSERT
8
0
2
via20
10
3.3183937
20
4.7350000
41
1.0000000
42
1.0000000
43
1.0000000
50
90.0000000
0
INSERT
8
0
2
PIN31
10
0.0000000
20
0.0000000
41
1.0000000
42
1.0000000
43
1.0000000
50
0.0000000
0
INSERT
8
0
2
PIN22
10
0.0000000
20
0.0000000
41
1.0000000
42
1.0000000
43
1.0000000
50
0.0000000
0
INSERT
8
0
2
PIN28
10
0.0000000
20
0.0000000
41
1.0000000
42
1.0000000
43
1.0000000
50
0.0000000
0
INSERT
8
0
2
P_X1_92Y_34MM
10
3.3366142
20
4.7997323
41
1.0000000
42
1.0000000
43
1.0000000
50
90.0000000
0
INSERT
8
0
2
via20
10
3.3773937
20
4.7140000
41
1.0000000
42
1.0000000
43
1.0000000
50
90.0000000
0
INSERT
8
0
2
P_X1_92Y_34MM
10
3.3759843
20
4.7997323
41
1.0000000
42
1.0000000
43
1.0000000
50
90.0000000
0
INSERT
8
0
2
P_X1_92Y_34MM
10
3.3956693
20
4.7997323
41
1.0000000
42
1.0000000
43
1.0000000
50
90.0000000
0
INSERT
8
0
2
via20
10
3.3573937
20
4.7330000
41
1.0000000
42
1.0000000
43
1.0000000
50
90.0000000
0
INSERT
8
0
2
P_X1_92Y_34MM
10
3.2972441
20
4.7997323
41
1.0000000
42
1.0000000
43
1.0000000
50
90.0000000
0
INSERT
8
0
2
P_X1_92Y_34MM
10
3.4547244
20
4.7997323
41
1.0000000
42
1.0000000
43
1.0000000
50
90.0000000
0
INSERT
8
0
2
via20
10
3.3963937
20
4.7330000
41
1.0000000
42
1.0000000
43
1.0000000
50
90.0000000
0
INSERT
8
0
2
P_X1_92Y_34MM
10
3.5137795
20
4.7997323
41
1.0000000
42
1.0000000
43
1.0000000
50
90.0000000
0
INSERT
8
0
2
P_X1_92Y_34MM
10
3.3562992
20
4.7997323
41
1.0000000
42
1.0000000
43
1.0000000
50
90.0000000
0
INSERT
8
0
2
P_X1_92Y_34MM
10
3.4744094
20
4.7997323
41
1.0000000
42
1.0000000
43
1.0000000
50
90.0000000
0
INSERT
8
0
2
via20
10
3.4173937
20
4.7140000
41
1.0000000
42
1.0000000
43
1.0000000
50
90.0000000
0
INSERT
8
0
2
P_X1_92Y_34MM
10
3.4153543
20
4.7997323
41
1.0000000
42
1.0000000
43
1.0000000
50
90.0000000
0
INSERT
8
0
2
via20
10
3.5153937
20
4.7350000
41
1.0000000
42
1.0000000
43
1.0000000
50
90.0000000
0
INSERT
8
0
2
PIN25
10
0.0000000
20
0.0000000
41
1.0000000
42
1.0000000
43
1.0000000
50
0.0000000
0
INSERT
8
0
2
via20
10
3.4573937
20
4.7160000
41
1.0000000
42
1.0000000
43
1.0000000
50
90.0000000
0
INSERT
8
0
2
via20
10
3.4963937
20
4.7160000
41
1.0000000
42
1.0000000
43
1.0000000
50
90.0000000
0
INSERT
8
0
2
P_X1_92Y_34MM
10
3.4350394
20
4.7997323
41
1.0000000
42
1.0000000
43
1.0000000
50
90.0000000
0
INSERT
8
0
2
via20
10
3.4353937
20
4.7340000
41
1.0000000
42
1.0000000
43
1.0000000
50
90.0000000
0
INSERT
8
0
2
P_X1_92Y_34MM
10
3.4940945
20
4.7997323
41
1.0000000
42
1.0000000
43
1.0000000
50
90.0000000
0
INSERT
8
0
2
PIN26
10
0.0000000
20
0.0000000
41
1.0000000
42
1.0000000
43
1.0000000
50
0.0000000
0
INSERT
8
0
2
PIN23
10
0.0000000
20
0.0000000
41
1.0000000
42
1.0000000
43
1.0000000
50
0.0000000
0
INSERT
8
0
2
P_X1_92Y_34MM
10
3.3169291
20
4.7997323
41
1.0000000
42
1.0000000
43
1.0000000
50
90.0000000
0
INSERT
8
0
2
PIN21
10
0.0000000
20
0.0000000
41
1.0000000
42
1.0000000
43
1.0000000
50
0.0000000
0
INSERT
8
0
2
via20
10
3.3383937
20
4.7140000
41
1.0000000
42
1.0000000
43
1.0000000
50
90.0000000
0
INSERT
8
0
2
PIN24
10
0.0000000
20
0.0000000
41
1.0000000
42
1.0000000
43
1.0000000
50
0.0000000
0
INSERT
8
0
2
PIN27
10
0.0000000
20
0.0000000
41
1.0000000
42
1.0000000
43
1.0000000
50
0.0000000
0
INSERT
8
0
2
via20
10
3.4753937
20
4.7350000
41
1.0000000
42
1.0000000
43
1.0000000
50
90.0000000
0
INSERT
8
0
2
PIN30
10
0.0000000
20
0.0000000
41
1.0000000
42
1.0000000
43
1.0000000
50
0.0000000
0
INSERT
8
0
2
PIN29
10
0.0000000
20
0.0000000
41
1.0000000
42
1.0000000
43
1.0000000
50
0.0000000
0
INSERT
8
0
2
PIN20
10
0.0000000
20
0.0000000
41
1.0000000
42
1.0000000
43
1.0000000
50
0.0000000
0
INSERT
8
0
2
via26
10
3.4251969
20
5.0000000
41
1.0000000
42
1.0000000
43
1.0000000
50
0.0000000
0
INSERT
8
0
2
P_X1_92Y_34MM
10
3.4350394
20
5.2002835
41
1.0000000
42
1.0000000
43
1.0000000
50
90.0000000
0
INSERT
8
0
2
P_X1_92Y_34MM
10
3.4547244
20
5.2002835
41
1.0000000
42
1.0000000
43
1.0000000
50
90.0000000
0
INSERT
8
0
2
P_X1_92Y_34MM
10
3.4744094
20
5.2002835
41
1.0000000
42
1.0000000
43
1.0000000
50
90.0000000
0
INSERT
8
0
2
P_X1_92Y_34MM
10
3.4940945
20
5.2002835
41
1.0000000
42
1.0000000
43
1.0000000
50
90.0000000
0
INSERT
8
0
2
P_X1_92Y_34MM
10
3.5137795
20
5.2002835
41
1.0000000
42
1.0000000
43
1.0000000
50
90.0000000
0
INSERT
8
0
2
P_X1_92Y_34MM
10
3.2972441
20
5.2002835
41
1.0000000
42
1.0000000
43
1.0000000
50
90.0000000
0
INSERT
8
0
2
P_X1_92Y_34MM
10
3.3759843
20
5.2002835
41
1.0000000
42
1.0000000
43
1.0000000
50
90.0000000
0
INSERT
8
0
2
P_X1_92Y_34MM
10
3.3169291
20
5.2002835
41
1.0000000
42
1.0000000
43
1.0000000
50
90.0000000
0
INSERT
8
0
2
P_X1_92Y_34MM
10
3.3366142
20
5.2002835
41
1.0000000
42
1.0000000
43
1.0000000
50
90.0000000
0
INSERT
8
0
2
P_X1_92Y_34MM
10
3.3562992
20
5.2002835
41
1.0000000
42
1.0000000
43
1.0000000
50
90.0000000
0
INSERT
8
0
2
P_X1_92Y_34MM
10
3.3956693
20
5.2002835
41
1.0000000
42
1.0000000
43
1.0000000
50
90.0000000
0
INSERT
8
0
2
P_X1_92Y_34MM
10
3.4153543
20
5.2002835
41
1.0000000
42
1.0000000
43
1.0000000
50
90.0000000
0
INSERT
8
0
2
PIN54
10
0.0000000
20
0.0000000
41
1.0000000
42
1.0000000
43
1.0000000
50
0.0000000
0
INSERT
8
0
2
PIN53
10
0.0000000
20
0.0000000
41
1.0000000
42
1.0000000
43
1.0000000
50
0.0000000
0
INSERT
8
0
2
PIN52
10
0.0000000
20
0.0000000
41
1.0000000
42
1.0000000
43
1.0000000
50
0.0000000
0
INSERT
8
0
2
PIN60
10
0.0000000
20
0.0000000
41
1.0000000
42
1.0000000
43
1.0000000
50
0.0000000
0
INSERT
8
0
2
PIN59
10
0.0000000
20
0.0000000
41
1.0000000
42
1.0000000
43
1.0000000
50
0.0000000
0
INSERT
8
0
2
PIN57
10
0.0000000
20
0.0000000
41
1.0000000
42
1.0000000
43
1.0000000
50
0.0000000
0
INSERT
8
0
2
PIN58
10
0.0000000
20
0.0000000
41
1.0000000
42
1.0000000
43
1.0000000
50
0.0000000
0
INSERT
8
0
2
PIN56
10
0.0000000
20
0.0000000
41
1.0000000
42
1.0000000
43
1.0000000
50
0.0000000
0
INSERT
8
0
2
PIN55
10
0.0000000
20
0.0000000
41
1.0000000
42
1.0000000
43
1.0000000
50
0.0000000
0
INSERT
8
0
2
PIN50
10
0.0000000
20
0.0000000
41
1.0000000
42
1.0000000
43
1.0000000
50
0.0000000
0
INSERT
8
0
2
PIN51
10
0.0000000
20
0.0000000
41
1.0000000
42
1.0000000
43
1.0000000
50
0.0000000
0
INSERT
8
0
2
PIN61
10
0.0000000
20
0.0000000
41
1.0000000
42
1.0000000
43
1.0000000
50
0.0000000
0
INSERT
8
0
2
P_X1_92Y_34MM
10
3.6254724
20
4.9901654
41
1.0000000
42
1.0000000
43
1.0000000
50
0.0000000
0
INSERT
8
0
2
P_X1_92Y_34MM
10
3.6254724
20
4.9704803
41
1.0000000
42
1.0000000
43
1.0000000
50
0.0000000
0
INSERT
8
0
2
P_X1_92Y_34MM
10
3.6254724
20
4.9507953
41
1.0000000
42
1.0000000
43
1.0000000
50
0.0000000
0
INSERT
8
0
2
P_X1_92Y_34MM
10
3.6254724
20
5.0098504
41
1.0000000
42
1.0000000
43
1.0000000
50
0.0000000
0
INSERT
8
0
2
P_X1_92Y_34MM
10
3.6254724
20
5.0295354
41
1.0000000
42
1.0000000
43
1.0000000
50
0.0000000
0
INSERT
8
0
2
P_X1_92Y_34MM
10
3.6254724
20
5.0492205
41
1.0000000
42
1.0000000
43
1.0000000
50
0.0000000
0
INSERT
8
0
2
P_X1_92Y_34MM
10
3.6254724
20
5.0689055
41
1.0000000
42
1.0000000
43
1.0000000
50
0.0000000
0
INSERT
8
0
2
P_X1_92Y_34MM
10
3.6254724
20
5.1082756
41
1.0000000
42
1.0000000
43
1.0000000
50
0.0000000
0
INSERT
8
0
2
P_X1_92Y_34MM
10
3.6254724
20
5.0885906
41
1.0000000
42
1.0000000
43
1.0000000
50
0.0000000
0
INSERT
8
0
2
P_X1_92Y_34MM
10
3.6254724
20
5.1476457
41
1.0000000
42
1.0000000
43
1.0000000
50
0.0000000
0
INSERT
8
0
2
P_X1_92Y_34MM
10
3.6254724
20
5.1279606
41
1.0000000
42
1.0000000
43
1.0000000
50
0.0000000
0
INSERT
8
0
2
P_X1_92Y_34MM
10
3.5531496
20
5.2002835
41
1.0000000
42
1.0000000
43
1.0000000
50
90.0000000
0
INSERT
8
0
2
P_X1_92Y_34MM
10
3.5728346
20
5.2002835
41
1.0000000
42
1.0000000
43
1.0000000
50
90.0000000
0
INSERT
8
0
2
P_X1_92Y_34MM
10
3.5334646
20
5.2002835
41
1.0000000
42
1.0000000
43
1.0000000
50
90.0000000
0
INSERT
8
0
2
via20
10
3.7113937
20
4.9520000
41
1.0000000
42
1.0000000
43
1.0000000
50
180.0000000
0
INSERT
8
0
2
via20
10
3.7113937
20
4.9920000
41
1.0000000
42
1.0000000
43
1.0000000
50
180.0000000
0
INSERT
8
0
2
via20
10
3.7093937
20
5.0320000
41
1.0000000
42
1.0000000
43
1.0000000
50
180.0000000
0
INSERT
8
0
2
via20
10
3.7083937
20
5.1100000
41
1.0000000
42
1.0000000
43
1.0000000
50
180.0000000
0
INSERT
8
0
2
via20
10
3.7093937
20
5.1490000
41
1.0000000
42
1.0000000
43
1.0000000
50
180.0000000
0
INSERT
8
0
2
via20
10
3.6903937
20
5.0500000
41
1.0000000
42
1.0000000
43
1.0000000
50
180.0000000
0
INSERT
8
0
2
via20
10
3.6903937
20
5.1300000
41
1.0000000
42
1.0000000
43
1.0000000
50
180.0000000
0
INSERT
8
0
2
via20
10
3.7093937
20
5.0710000
41
1.0000000
42
1.0000000
43
1.0000000
50
180.0000000
0
INSERT
8
0
2
via20
10
3.6903937
20
5.0900000
41
1.0000000
42
1.0000000
43
1.0000000
50
180.0000000
0
INSERT
8
0
2
via20
10
3.6913937
20
5.0100000
41
1.0000000
42
1.0000000
43
1.0000000
50
180.0000000
0
INSERT
8
0
2
via20
10
3.6923937
20
4.9710000
41
1.0000000
42
1.0000000
43
1.0000000
50
180.0000000
0
INSERT
8
0
2
PIN40
10
0.0000000
20
0.0000000
41
1.0000000
42
1.0000000
43
1.0000000
50
0.0000000
0
INSERT
8
0
2
PIN41
10
0.0000000
20
0.0000000
41
1.0000000
42
1.0000000
43
1.0000000
50
0.0000000
0
INSERT
8
0
2
PIN42
10
0.0000000
20
0.0000000
41
1.0000000
42
1.0000000
43
1.0000000
50
0.0000000
0
INSERT
8
0
2
PIN48
10
0.0000000
20
0.0000000
41
1.0000000
42
1.0000000
43
1.0000000
50
0.0000000
0
INSERT
8
0
2
PIN47
10
0.0000000
20
0.0000000
41
1.0000000
42
1.0000000
43
1.0000000
50
0.0000000
0
INSERT
8
0
2
PIN46
10
0.0000000
20
0.0000000
41
1.0000000
42
1.0000000
43
1.0000000
50
0.0000000
0
INSERT
8
0
2
PIN43
10
0.0000000
20
0.0000000
41
1.0000000
42
1.0000000
43
1.0000000
50
0.0000000
0
INSERT
8
0
2
PIN44
10
0.0000000
20
0.0000000
41
1.0000000
42
1.0000000
43
1.0000000
50
0.0000000
0
INSERT
8
0
2
PIN45
10
0.0000000
20
0.0000000
41
1.0000000
42
1.0000000
43
1.0000000
50
0.0000000
0
INSERT
8
0
2
PIN49
10
0.0000000
20
0.0000000
41
1.0000000
42
1.0000000
43
1.0000000
50
0.0000000
0
INSERT
8
0
2
via20
10
3.5743937
20
4.7160000
41
1.0000000
42
1.0000000
43
1.0000000
50
90.0000000
0
INSERT
8
0
2
via20
10
3.5553937
20
4.7350000
41
1.0000000
42
1.0000000
43
1.0000000
50
90.0000000
0
INSERT
8
0
2
via20
10
3.5353937
20
4.7180000
41
1.0000000
42
1.0000000
43
1.0000000
50
90.0000000
0
INSERT
8
0
2
P_X1_92Y_34MM
10
3.6254724
20
4.9311102
41
1.0000000
42
1.0000000
43
1.0000000
50
0.0000000
0
INSERT
8
0
2
P_X1_92Y_34MM
10
3.6254724
20
4.9114252
41
1.0000000
42
1.0000000
43
1.0000000
50
0.0000000
0
INSERT
8
0
2
P_X1_92Y_34MM
10
3.6254724
20
4.8917402
41
1.0000000
42
1.0000000
43
1.0000000
50
0.0000000
0
INSERT
8
0
2
P_X1_92Y_34MM
10
3.6254724
20
4.8720551
41
1.0000000
42
1.0000000
43
1.0000000
50
0.0000000
0
INSERT
8
0
2
P_X1_92Y_34MM
10
3.6254724
20
4.8523701
41
1.0000000
42
1.0000000
43
1.0000000
50
0.0000000
0
INSERT
8
0
2
P_X1_92Y_34MM
10
3.5531496
20
4.7997323
41
1.0000000
42
1.0000000
43
1.0000000
50
90.0000000
0
INSERT
8
0
2
P_X1_92Y_34MM
10
3.5728346
20
4.7997323
41
1.0000000
42
1.0000000
43
1.0000000
50
90.0000000
0
INSERT
8
0
2
P_X1_92Y_34MM
10
3.5334646
20
4.7997323
41
1.0000000
42
1.0000000
43
1.0000000
50
90.0000000
0
INSERT
8
0
2
via20
10
3.7083937
20
4.8740000
41
1.0000000
42
1.0000000
43
1.0000000
50
180.0000000
0
INSERT
8
0
2
via20
10
3.6923937
20
4.9320000
41
1.0000000
42
1.0000000
43
1.0000000
50
180.0000000
0
INSERT
8
0
2
via20
10
3.6923937
20
4.8520000
41
1.0000000
42
1.0000000
43
1.0000000
50
180.0000000
0
INSERT
8
0
2
via20
10
3.7103937
20
4.9130000
41
1.0000000
42
1.0000000
43
1.0000000
50
180.0000000
0
INSERT
8
0
2
PIN35
10
0.0000000
20
0.0000000
41
1.0000000
42
1.0000000
43
1.0000000
50
0.0000000
0
INSERT
8
0
2
PIN36
10
0.0000000
20
0.0000000
41
1.0000000
42
1.0000000
43
1.0000000
50
0.0000000
0
INSERT
8
0
2
PIN37
10
0.0000000
20
0.0000000
41
1.0000000
42
1.0000000
43
1.0000000
50
0.0000000
0
INSERT
8
0
2
PIN38
10
0.0000000
20
0.0000000
41
1.0000000
42
1.0000000
43
1.0000000
50
0.0000000
0
INSERT
8
0
2
PIN39
10
0.0000000
20
0.0000000
41
1.0000000
42
1.0000000
43
1.0000000
50
0.0000000
0
INSERT
8
0
2
PIN32
10
0.0000000
20
0.0000000
41
1.0000000
42
1.0000000
43
1.0000000
50
0.0000000
0
INSERT
8
0
2
PIN34
10
0.0000000
20
0.0000000
41
1.0000000
42
1.0000000
43
1.0000000
50
0.0000000
0
INSERT
8
0
2
PIN33
10
0.0000000
20
0.0000000
41
1.0000000
42
1.0000000
43
1.0000000
50
0.0000000
0
INSERT
8
0
2
P_C1_55U__1_
10
4.0945000
20
4.3307000
41
1.0000000
42
1.0000000
43
1.0000000
50
0.0000000
0
INSERT
8
0
2
P_C5_0D2_5__1_
10
3.9252000
20
4.5000000
41
1.0000000
42
1.0000000
43
1.0000000
50
0.0000000
0
INSERT
8
0
2
P_C5_0D2_5__1_
10
3.9252000
20
5.5000000
41
1.0000000
42
1.0000000
43
1.0000000
50
0.0000000
0
INSERT
8
0
2
P_C1_55U__1_
10
4.0945000
20
5.6693000
41
1.0000000
42
1.0000000
43
1.0000000
50
0.0000000
0
INSERT
8
0
2
RF3
10
0.0000000
20
0.0000000
41
1.0000000
42
1.0000000
43
1.0000000
50
0.0000000
0
INSERT
8
0
2
RF2
10
0.0000000
20
0.0000000
41
1.0000000
42
1.0000000
43
1.0000000
50
0.0000000
0
INSERT
8
0
2
DP3
10
0.0000000
20
0.0000000
41
1.0000000
42
1.0000000
43
1.0000000
50
0.0000000
0
INSERT
8
0
2
DP1
10
0.0000000
20
0.0000000
41
1.0000000
42
1.0000000
43
1.0000000
50
0.0000000
0
INSERT
8
0
2
P_SMASK1
10
4.5000000
20
7.4450000
41
1.0000000
42
1.0000000
43
1.0000000
50
0.0000000
0
INSERT
8
0
2
P_SMASK1
10
5.5000000
20
7.4450000
41
1.0000000
42
1.0000000
43
1.0000000
50
0.0000000
0
INSERT
8
0
2
via261
10
5.1650000
20
7.3950000
41
1.0000000
42
1.0000000
43
1.0000000
50
0.0000000
0
INSERT
8
0
2
via261
10
5.1650000
20
7.5000000
41
1.0000000
42
1.0000000
43
1.0000000
50
0.0000000
0
INSERT
8
0
2
via261
10
4.8350000
20
7.3950000
41
1.0000000
42
1.0000000
43
1.0000000
50
0.0000000
0
INSERT
8
0
2
via261
10
4.8350000
20
7.5000000
41
1.0000000
42
1.0000000
43
1.0000000
50
0.0000000
0
INSERT
8
0
2
via261
10
4.1650000
20
7.3950000
41
1.0000000
42
1.0000000
43
1.0000000
50
0.0000000
0
INSERT
8
0
2
via261
10
4.1650000
20
7.5000000
41
1.0000000
42
1.0000000
43
1.0000000
50
0.0000000
0
INSERT
8
0
2
via261
10
3.8350000
20
7.3950000
41
1.0000000
42
1.0000000
43
1.0000000
50
0.0000000
0
INSERT
8
0
2
via261
10
3.8350000
20
7.5000000
41
1.0000000
42
1.0000000
43
1.0000000
50
0.0000000
0
INSERT
8
0
2
P_SMASK1
10
6.5000000
20
7.4550000
41
1.0000000
42
1.0000000
43
1.0000000
50
180.0000000
0
INSERT
8
0
2
P_SMASK1
10
7.4550000
20
6.5000000
41
1.0000000
42
1.0000000
43
1.0000000
50
90.0000000
0
INSERT
8
0
2
via261
10
7.5000000
20
7.1750000
41
1.0000000
42
1.0000000
43
1.0000000
50
270.0000000
0
INSERT
8
0
2
via261
10
7.3950000
20
6.8350000
41
1.0000000
42
1.0000000
43
1.0000000
50
270.0000000
0
INSERT
8
0
2
via261
10
7.5000000
20
6.8350000
41
1.0000000
42
1.0000000
43
1.0000000
50
270.0000000
0
INSERT
8
0
2
via261
10
7.1750000
20
7.3950000
41
1.0000000
42
1.0000000
43
1.0000000
50
0.0000000
0
INSERT
8
0
2
via261
10
7.1750000
20
7.5000000
41
1.0000000
42
1.0000000
43
1.0000000
50
0.0000000
0
INSERT
8
0
2
via261
10
6.8350000
20
7.3950000
41
1.0000000
42
1.0000000
43
1.0000000
50
0.0000000
0
INSERT
8
0
2
via261
10
6.8350000
20
7.5000000
41
1.0000000
42
1.0000000
43
1.0000000
50
0.0000000
0
INSERT
8
0
2
via261
10
7.3950000
20
5.8350000
41
1.0000000
42
1.0000000
43
1.0000000
50
270.0000000
0
INSERT
8
0
2
via261
10
7.5000000
20
5.8350000
41
1.0000000
42
1.0000000
43
1.0000000
50
270.0000000
0
INSERT
8
0
2
via261
10
7.3950000
20
6.1650000
41
1.0000000
42
1.0000000
43
1.0000000
50
270.0000000
0
INSERT
8
0
2
via261
10
7.5000000
20
6.1650000
41
1.0000000
42
1.0000000
43
1.0000000
50
270.0000000
0
INSERT
8
0
2
via261
10
6.1650000
20
7.3950000
41
1.0000000
42
1.0000000
43
1.0000000
50
0.0000000
0
INSERT
8
0
2
via261
10
6.1650000
20
7.5000000
41
1.0000000
42
1.0000000
43
1.0000000
50
0.0000000
0
INSERT
8
0
2
via261
10
5.8350000
20
7.3950000
41
1.0000000
42
1.0000000
43
1.0000000
50
0.0000000
0
INSERT
8
0
2
via261
10
5.8350000
20
7.5000000
41
1.0000000
42
1.0000000
43
1.0000000
50
0.0000000
0
INSERT
8
0
2
via261
10
7.3950000
20
7.1750000
41
1.0000000
42
1.0000000
43
1.0000000
50
270.0000000
0
INSERT
8
0
2
P_C5_0D2_5__1_
10
6.0748000
20
4.5000000
41
1.0000000
42
1.0000000
43
1.0000000
50
0.0000000
0
INSERT
8
0
2
P_C1_55U__1_
10
5.9034803
20
4.3307000
41
1.0000000
42
1.0000000
43
1.0000000
50
0.0000000
0
INSERT
8
0
2
P_C1_55U__1_
10
5.9035000
20
5.6693000
41
1.0000000
42
1.0000000
43
1.0000000
50
0.0000000
0
INSERT
8
0
2
P_C5_0D2_5__1_
10
6.0748000
20
5.5000000
41
1.0000000
42
1.0000000
43
1.0000000
50
0.0000000
0
INSERT
8
0
2
via20
10
6.4266063
20
5.2800000
41
1.0000000
42
1.0000000
43
1.0000000
50
270.0000000
0
INSERT
8
0
2
via20
10
6.4456063
20
5.2610000
41
1.0000000
42
1.0000000
43
1.0000000
50
270.0000000
0
INSERT
8
0
2
via20
10
6.5656063
20
5.2630000
41
1.0000000
42
1.0000000
43
1.0000000
50
270.0000000
0
INSERT
8
0
2
via20
10
6.5446063
20
5.2810000
41
1.0000000
42
1.0000000
43
1.0000000
50
270.0000000
0
INSERT
8
0
2
via20
10
6.5256063
20
5.2620000
41
1.0000000
42
1.0000000
43
1.0000000
50
270.0000000
0
INSERT
8
0
2
via20
10
6.5046063
20
5.2810000
41
1.0000000
42
1.0000000
43
1.0000000
50
270.0000000
0
INSERT
8
0
2
via20
10
6.4856063
20
5.2620000
41
1.0000000
42
1.0000000
43
1.0000000
50
270.0000000
0
INSERT
8
0
2
via20
10
6.4656063
20
5.2790000
41
1.0000000
42
1.0000000
43
1.0000000
50
270.0000000
0
INSERT
8
0
2
P_X1_92Y_34MM
10
6.5452756
20
4.7997323
41
1.0000000
42
1.0000000
43
1.0000000
50
90.0000000
0
INSERT
8
0
2
via20
10
6.3116063
20
4.8710000
41
1.0000000
42
1.0000000
43
1.0000000
50
0.0000000
0
INSERT
8
0
2
via20
10
6.5056063
20
4.7340000
41
1.0000000
42
1.0000000
43
1.0000000
50
90.0000000
0
INSERT
8
0
2
via20
10
6.3116063
20
4.9510000
41
1.0000000
42
1.0000000
43
1.0000000
50
0.0000000
0
INSERT
8
0
2
via20
10
6.2926063
20
4.9300000
41
1.0000000
42
1.0000000
43
1.0000000
50
0.0000000
0
INSERT
8
0
2
via20
10
6.4256063
20
4.7340000
41
1.0000000
42
1.0000000
43
1.0000000
50
90.0000000
0
INSERT
8
0
2
via20
10
6.4476063
20
4.7180000
41
1.0000000
42
1.0000000
43
1.0000000
50
90.0000000
0
INSERT
8
0
2
via20
10
6.2946063
20
4.8510000
41
1.0000000
42
1.0000000
43
1.0000000
50
0.0000000
0
INSERT
8
0
2
via20
10
6.2936063
20
4.9700000
41
1.0000000
42
1.0000000
43
1.0000000
50
0.0000000
0
INSERT
8
0
2
via20
10
6.3096063
20
5.0300000
41
1.0000000
42
1.0000000
43
1.0000000
50
0.0000000
0
INSERT
8
0
2
via20
10
6.3096063
20
5.1490000
41
1.0000000
42
1.0000000
43
1.0000000
50
0.0000000
0
INSERT
8
0
2
via20
10
6.2906063
20
5.0890000
41
1.0000000
42
1.0000000
43
1.0000000
50
0.0000000
0
INSERT
8
0
2
via20
10
6.2936063
20
5.1280000
41
1.0000000
42
1.0000000
43
1.0000000
50
0.0000000
0
INSERT
8
0
2
via20
10
6.2916063
20
5.0500000
41
1.0000000
42
1.0000000
43
1.0000000
50
0.0000000
0
INSERT
8
0
2
via20
10
6.2916063
20
5.0100000
41
1.0000000
42
1.0000000
43
1.0000000
50
0.0000000
0
INSERT
8
0
2
via20
10
6.3106063
20
4.9910000
41
1.0000000
42
1.0000000
43
1.0000000
50
0.0000000
0
INSERT
8
0
2
via20
10
6.3096063
20
5.0690000
41
1.0000000
42
1.0000000
43
1.0000000
50
0.0000000
0
INSERT
8
0
2
P_X1_92Y_34MM
10
6.3745276
20
5.0885906
41
1.0000000
42
1.0000000
43
1.0000000
50
0.0000000
0
INSERT
8
0
2
P_X1_92Y_34MM
10
6.3745276
20
5.1082756
41
1.0000000
42
1.0000000
43
1.0000000
50
0.0000000
0
INSERT
8
0
2
P_X1_92Y_34MM
10
6.5255906
20
5.2002835
41
1.0000000
42
1.0000000
43
1.0000000
50
90.0000000
0
INSERT
8
0
2
P_X1_92Y_34MM
10
6.4665354
20
5.2002835
41
1.0000000
42
1.0000000
43
1.0000000
50
90.0000000
0
INSERT
8
0
2
P_X1_92Y_34MM
10
6.4862205
20
5.2002835
41
1.0000000
42
1.0000000
43
1.0000000
50
90.0000000
0
INSERT
8
0
2
P_X1_92Y_34MM
10
6.5059055
20
5.2002835
41
1.0000000
42
1.0000000
43
1.0000000
50
90.0000000
0
INSERT
8
0
2
P_X1_92Y_34MM
10
6.3745276
20
5.1279606
41
1.0000000
42
1.0000000
43
1.0000000
50
0.0000000
0
INSERT
8
0
2
P_X1_92Y_34MM
10
6.3745276
20
5.1476457
41
1.0000000
42
1.0000000
43
1.0000000
50
0.0000000
0
INSERT
8
0
2
P_X1_92Y_34MM
10
6.3745276
20
4.9901654
41
1.0000000
42
1.0000000
43
1.0000000
50
0.0000000
0
INSERT
8
0
2
P_X1_92Y_34MM
10
6.3745276
20
4.9704803
41
1.0000000
42
1.0000000
43
1.0000000
50
0.0000000
0
INSERT
8
0
2
P_X1_92Y_34MM
10
6.3745276
20
5.0098504
41
1.0000000
42
1.0000000
43
1.0000000
50
0.0000000
0
INSERT
8
0
2
P_X1_92Y_34MM
10
6.3745276
20
5.0295354
41
1.0000000
42
1.0000000
43
1.0000000
50
0.0000000
0
INSERT
8
0
2
P_X1_92Y_34MM
10
6.3745276
20
5.0492205
41
1.0000000
42
1.0000000
43
1.0000000
50
0.0000000
0
INSERT
8
0
2
P_X1_92Y_34MM
10
6.3745276
20
5.0689055
41
1.0000000
42
1.0000000
43
1.0000000
50
0.0000000
0
INSERT
8
0
2
P_X1_92Y_34MM
10
6.4271654
20
5.2002835
41
1.0000000
42
1.0000000
43
1.0000000
50
90.0000000
0
INSERT
8
0
2
via20
10
6.3116063
20
5.1080000
41
1.0000000
42
1.0000000
43
1.0000000
50
0.0000000
0
INSERT
8
0
2
PIN124
10
0.0000000
20
0.0000000
41
1.0000000
42
1.0000000
43
1.0000000
50
0.0000000
0
INSERT
8
0
2
PIN128
10
0.0000000
20
0.0000000
41
1.0000000
42
1.0000000
43
1.0000000
50
0.0000000
0
INSERT
8
0
2
PIN84
10
0.0000000
20
0.0000000
41
1.0000000
42
1.0000000
43
1.0000000
50
0.0000000
0
INSERT
8
0
2
PIN83
10
0.0000000
20
0.0000000
41
1.0000000
42
1.0000000
43
1.0000000
50
0.0000000
0
INSERT
8
0
2
PIN86
10
0.0000000
20
0.0000000
41
1.0000000
42
1.0000000
43
1.0000000
50
0.0000000
0
INSERT
8
0
2
PIN85
10
0.0000000
20
0.0000000
41
1.0000000
42
1.0000000
43
1.0000000
50
0.0000000
0
INSERT
8
0
2
PIN82
10
0.0000000
20
0.0000000
41
1.0000000
42
1.0000000
43
1.0000000
50
0.0000000
0
INSERT
8
0
2
PIN81
10
0.0000000
20
0.0000000
41
1.0000000
42
1.0000000
43
1.0000000
50
0.0000000
0
INSERT
8
0
2
PIN79
10
0.0000000
20
0.0000000
41
1.0000000
42
1.0000000
43
1.0000000
50
0.0000000
0
INSERT
8
0
2
PIN80
10
0.0000000
20
0.0000000
41
1.0000000
42
1.0000000
43
1.0000000
50
0.0000000
0
INSERT
8
0
2
PIN77
10
0.0000000
20
0.0000000
41
1.0000000
42
1.0000000
43
1.0000000
50
0.0000000
0
INSERT
8
0
2
via26
10
6.5748031
20
5.0000000
41
1.0000000
42
1.0000000
43
1.0000000
50
0.0000000
0
INSERT
8
0
2
PIN89
10
0.0000000
20
0.0000000
41
1.0000000
42
1.0000000
43
1.0000000
50
0.0000000
0
INSERT
8
0
2
PIN88
10
0.0000000
20
0.0000000
41
1.0000000
42
1.0000000
43
1.0000000
50
0.0000000
0
INSERT
8
0
2
PIN87
10
0.0000000
20
0.0000000
41
1.0000000
42
1.0000000
43
1.0000000
50
0.0000000
0
INSERT
8
0
2
PIN90
10
0.0000000
20
0.0000000
41
1.0000000
42
1.0000000
43
1.0000000
50
0.0000000
0
INSERT
8
0
2
PIN119
10
0.0000000
20
0.0000000
41
1.0000000
42
1.0000000
43
1.0000000
50
0.0000000
0
INSERT
8
0
2
via20
10
6.5656063
20
4.7160000
41
1.0000000
42
1.0000000
43
1.0000000
50
90.0000000
0
INSERT
8
0
2
P_X1_92Y_34MM
10
6.5649606
20
4.7997323
41
1.0000000
42
1.0000000
43
1.0000000
50
90.0000000
0
INSERT
8
0
2
PIN127
10
0.0000000
20
0.0000000
41
1.0000000
42
1.0000000
43
1.0000000
50
0.0000000
0
INSERT
8
0
2
via20
10
6.5256063
20
4.7160000
41
1.0000000
42
1.0000000
43
1.0000000
50
90.0000000
0
INSERT
8
0
2
via20
10
6.5446063
20
4.7340000
41
1.0000000
42
1.0000000
43
1.0000000
50
90.0000000
0
INSERT
8
0
2
P_X1_92Y_34MM
10
6.5255906
20
4.7997323
41
1.0000000
42
1.0000000
43
1.0000000
50
90.0000000
0
INSERT
8
0
2
via20
10
6.4866063
20
4.7160000
41
1.0000000
42
1.0000000
43
1.0000000
50
90.0000000
0
INSERT
8
0
2
P_X1_92Y_34MM
10
6.5059055
20
4.7997323
41
1.0000000
42
1.0000000
43
1.0000000
50
90.0000000
0
INSERT
8
0
2
P_X1_92Y_34MM
10
6.4862205
20
4.7997323
41
1.0000000
42
1.0000000
43
1.0000000
50
90.0000000
0
INSERT
8
0
2
P_X1_92Y_34MM
10
6.4665354
20
4.7997323
41
1.0000000
42
1.0000000
43
1.0000000
50
90.0000000
0
INSERT
8
0
2
P_X1_92Y_34MM
10
6.4468504
20
4.7997323
41
1.0000000
42
1.0000000
43
1.0000000
50
90.0000000
0
INSERT
8
0
2
via20
10
6.4666063
20
4.7360000
41
1.0000000
42
1.0000000
43
1.0000000
50
90.0000000
0
INSERT
8
0
2
P_X1_92Y_34MM
10
6.4468504
20
5.2002835
41
1.0000000
42
1.0000000
43
1.0000000
50
90.0000000
0
INSERT
8
0
2
P_X1_92Y_34MM
10
6.5452756
20
5.2002835
41
1.0000000
42
1.0000000
43
1.0000000
50
90.0000000
0
INSERT
8
0
2
P_X1_92Y_34MM
10
6.5649606
20
5.2002835
41
1.0000000
42
1.0000000
43
1.0000000
50
90.0000000
0
INSERT
8
0
2
PIN122
10
0.0000000
20
0.0000000
41
1.0000000
42
1.0000000
43
1.0000000
50
0.0000000
0
INSERT
8
0
2
PIN121
10
0.0000000
20
0.0000000
41
1.0000000
42
1.0000000
43
1.0000000
50
0.0000000
0
INSERT
8
0
2
PIN78
10
0.0000000
20
0.0000000
41
1.0000000
42
1.0000000
43
1.0000000
50
0.0000000
0
INSERT
8
0
2
PIN75
10
0.0000000
20
0.0000000
41
1.0000000
42
1.0000000
43
1.0000000
50
0.0000000
0
INSERT
8
0
2
PIN76
10
0.0000000
20
0.0000000
41
1.0000000
42
1.0000000
43
1.0000000
50
0.0000000
0
INSERT
8
0
2
PIN73
10
0.0000000
20
0.0000000
41
1.0000000
42
1.0000000
43
1.0000000
50
0.0000000
0
INSERT
8
0
2
PIN74
10
0.0000000
20
0.0000000
41
1.0000000
42
1.0000000
43
1.0000000
50
0.0000000
0
INSERT
8
0
2
PIN70
10
0.0000000
20
0.0000000
41
1.0000000
42
1.0000000
43
1.0000000
50
0.0000000
0
INSERT
8
0
2
PIN66
10
0.0000000
20
0.0000000
41
1.0000000
42
1.0000000
43
1.0000000
50
0.0000000
0
INSERT
8
0
2
PIN123
10
0.0000000
20
0.0000000
41
1.0000000
42
1.0000000
43
1.0000000
50
0.0000000
0
INSERT
8
0
2
PIN71
10
0.0000000
20
0.0000000
41
1.0000000
42
1.0000000
43
1.0000000
50
0.0000000
0
INSERT
8
0
2
PIN120
10
0.0000000
20
0.0000000
41
1.0000000
42
1.0000000
43
1.0000000
50
0.0000000
0
INSERT
8
0
2
PIN65
10
0.0000000
20
0.0000000
41
1.0000000
42
1.0000000
43
1.0000000
50
0.0000000
0
INSERT
8
0
2
PIN69
10
0.0000000
20
0.0000000
41
1.0000000
42
1.0000000
43
1.0000000
50
0.0000000
0
INSERT
8
0
2
PIN67
10
0.0000000
20
0.0000000
41
1.0000000
42
1.0000000
43
1.0000000
50
0.0000000
0
INSERT
8
0
2
PIN68
10
0.0000000
20
0.0000000
41
1.0000000
42
1.0000000
43
1.0000000
50
0.0000000
0
INSERT
8
0
2
PIN72
10
0.0000000
20
0.0000000
41
1.0000000
42
1.0000000
43
1.0000000
50
0.0000000
0
INSERT
8
0
2
P_X1_92Y_34MM
10
6.3745276
20
4.9311102
41
1.0000000
42
1.0000000
43
1.0000000
50
0.0000000
0
INSERT
8
0
2
P_X1_92Y_34MM
10
6.3745276
20
4.9507953
41
1.0000000
42
1.0000000
43
1.0000000
50
0.0000000
0
INSERT
8
0
2
P_X1_92Y_34MM
10
6.3745276
20
4.9114252
41
1.0000000
42
1.0000000
43
1.0000000
50
0.0000000
0
INSERT
8
0
2
P_X1_92Y_34MM
10
6.3745276
20
4.8917402
41
1.0000000
42
1.0000000
43
1.0000000
50
0.0000000
0
INSERT
8
0
2
P_X1_92Y_34MM
10
6.3745276
20
4.8720551
41
1.0000000
42
1.0000000
43
1.0000000
50
0.0000000
0
INSERT
8
0
2
P_X1_92Y_34MM
10
6.3745276
20
4.8523701
41
1.0000000
42
1.0000000
43
1.0000000
50
0.0000000
0
INSERT
8
0
2
P_X1_92Y_34MM
10
6.4271654
20
4.7997323
41
1.0000000
42
1.0000000
43
1.0000000
50
90.0000000
0
INSERT
8
0
2
via20
10
6.3116063
20
4.9110000
41
1.0000000
42
1.0000000
43
1.0000000
50
0.0000000
0
INSERT
8
0
2
via20
10
6.2946063
20
4.8910000
41
1.0000000
42
1.0000000
43
1.0000000
50
0.0000000
0
INSERT
8
0
2
PIN126
10
0.0000000
20
0.0000000
41
1.0000000
42
1.0000000
43
1.0000000
50
0.0000000
0
INSERT
8
0
2
PIN125
10
0.0000000
20
0.0000000
41
1.0000000
42
1.0000000
43
1.0000000
50
0.0000000
0
INSERT
8
0
2
via20
10
6.6636063
20
4.7360000
41
1.0000000
42
1.0000000
43
1.0000000
50
90.0000000
0
INSERT
8
0
2
via20
10
6.6046063
20
4.7170000
41
1.0000000
42
1.0000000
43
1.0000000
50
90.0000000
0
INSERT
8
0
2
P_X1_92Y_34MM
10
6.5846457
20
4.7997323
41
1.0000000
42
1.0000000
43
1.0000000
50
90.0000000
0
INSERT
8
0
2
P_X1_92Y_34MM
10
6.6240157
20
4.7997323
41
1.0000000
42
1.0000000
43
1.0000000
50
90.0000000
0
INSERT
8
0
2
P_X1_92Y_34MM
10
6.6437008
20
4.7997323
41
1.0000000
42
1.0000000
43
1.0000000
50
90.0000000
0
INSERT
8
0
2
P_X1_92Y_34MM
10
6.6633858
20
4.7997323
41
1.0000000
42
1.0000000
43
1.0000000
50
90.0000000
0
INSERT
8
0
2
P_X1_92Y_34MM
10
6.6043307
20
4.7997323
41
1.0000000
42
1.0000000
43
1.0000000
50
90.0000000
0
INSERT
8
0
2
via20
10
6.5836063
20
4.7350000
41
1.0000000
42
1.0000000
43
1.0000000
50
90.0000000
0
INSERT
8
0
2
via20
10
6.6236063
20
4.7360000
41
1.0000000
42
1.0000000
43
1.0000000
50
90.0000000
0
INSERT
8
0
2
via20
10
6.6446063
20
4.7170000
41
1.0000000
42
1.0000000
43
1.0000000
50
90.0000000
0
INSERT
8
0
2
P_X1_92Y_34MM
10
6.6043307
20
5.2002835
41
1.0000000
42
1.0000000
43
1.0000000
50
90.0000000
0
INSERT
8
0
2
P_X1_92Y_34MM
10
6.5846457
20
5.2002835
41
1.0000000
42
1.0000000
43
1.0000000
50
90.0000000
0
INSERT
8
0
2
P_X1_92Y_34MM
10
6.6633858
20
5.2002835
41
1.0000000
42
1.0000000
43
1.0000000
50
90.0000000
0
INSERT
8
0
2
P_X1_92Y_34MM
10
6.6437008
20
5.2002835
41
1.0000000
42
1.0000000
43
1.0000000
50
90.0000000
0
INSERT
8
0
2
P_X1_92Y_34MM
10
6.6240157
20
5.2002835
41
1.0000000
42
1.0000000
43
1.0000000
50
90.0000000
0
INSERT
8
0
2
P_X1_92Y_34MM
10
6.7750787
20
5.0689055
41
1.0000000
42
1.0000000
43
1.0000000
50
0.0000000
0
INSERT
8
0
2
P_X1_92Y_34MM
10
6.7750787
20
5.0492205
41
1.0000000
42
1.0000000
43
1.0000000
50
0.0000000
0
INSERT
8
0
2
P_X1_92Y_34MM
10
6.7750787
20
5.0295354
41
1.0000000
42
1.0000000
43
1.0000000
50
0.0000000
0
INSERT
8
0
2
P_X1_92Y_34MM
10
6.7750787
20
5.0098504
41
1.0000000
42
1.0000000
43
1.0000000
50
0.0000000
0
INSERT
8
0
2
P_X1_92Y_34MM
10
6.7750787
20
4.9704803
41
1.0000000
42
1.0000000
43
1.0000000
50
0.0000000
0
INSERT
8
0
2
P_X1_92Y_34MM
10
6.7750787
20
4.9901654
41
1.0000000
42
1.0000000
43
1.0000000
50
0.0000000
0
INSERT
8
0
2
P_X1_92Y_34MM
10
6.7750787
20
5.1082756
41
1.0000000
42
1.0000000
43
1.0000000
50
0.0000000
0
INSERT
8
0
2
P_X1_92Y_34MM
10
6.7750787
20
5.0885906
41
1.0000000
42
1.0000000
43
1.0000000
50
0.0000000
0
INSERT
8
0
2
P_X1_92Y_34MM
10
6.7750787
20
5.1476457
41
1.0000000
42
1.0000000
43
1.0000000
50
0.0000000
0
INSERT
8
0
2
P_X1_92Y_34MM
10
6.7750787
20
5.1279606
41
1.0000000
42
1.0000000
43
1.0000000
50
0.0000000
0
INSERT
8
0
2
P_X1_92Y_34MM
10
6.7027559
20
5.2002835
41
1.0000000
42
1.0000000
43
1.0000000
50
90.0000000
0
INSERT
8
0
2
P_X1_92Y_34MM
10
6.7224409
20
5.2002835
41
1.0000000
42
1.0000000
43
1.0000000
50
90.0000000
0
INSERT
8
0
2
P_X1_92Y_34MM
10
6.6830709
20
5.2002835
41
1.0000000
42
1.0000000
43
1.0000000
50
90.0000000
0
INSERT
8
0
2
via20
10
6.8376063
20
5.1290000
41
1.0000000
42
1.0000000
43
1.0000000
50
180.0000000
0
INSERT
8
0
2
via20
10
6.8546063
20
5.1090000
41
1.0000000
42
1.0000000
43
1.0000000
50
180.0000000
0
INSERT
8
0
2
via20
10
6.8376063
20
5.0890000
41
1.0000000
42
1.0000000
43
1.0000000
50
180.0000000
0
INSERT
8
0
2
via20
10
6.8566063
20
5.0700000
41
1.0000000
42
1.0000000
43
1.0000000
50
180.0000000
0
INSERT
8
0
2
via20
10
6.8576063
20
4.9910000
41
1.0000000
42
1.0000000
43
1.0000000
50
180.0000000
0
INSERT
8
0
2
via20
10
6.8386063
20
5.0090000
41
1.0000000
42
1.0000000
43
1.0000000
50
180.0000000
0
INSERT
8
0
2
via20
10
6.8376063
20
5.0490000
41
1.0000000
42
1.0000000
43
1.0000000
50
180.0000000
0
INSERT
8
0
2
via20
10
6.8556063
20
5.1480000
41
1.0000000
42
1.0000000
43
1.0000000
50
180.0000000
0
INSERT
8
0
2
via20
10
6.8556063
20
5.0300000
41
1.0000000
42
1.0000000
43
1.0000000
50
180.0000000
0
INSERT
8
0
2
P_X1_92Y_34MM
10
6.7750787
20
4.9507953
41
1.0000000
42
1.0000000
43
1.0000000
50
0.0000000
0
INSERT
8
0
2
via20
10
6.8576063
20
4.9510000
41
1.0000000
42
1.0000000
43
1.0000000
50
180.0000000
0
INSERT
8
0
2
via20
10
6.8396063
20
4.9700000
41
1.0000000
42
1.0000000
43
1.0000000
50
180.0000000
0
INSERT
8
0
2
P_X1_92Y_34MM
10
6.7027559
20
4.7997323
41
1.0000000
42
1.0000000
43
1.0000000
50
90.0000000
0
INSERT
8
0
2
P_X1_92Y_34MM
10
6.7224409
20
4.7997323
41
1.0000000
42
1.0000000
43
1.0000000
50
90.0000000
0
INSERT
8
0
2
P_X1_92Y_34MM
10
6.6830709
20
4.7997323
41
1.0000000
42
1.0000000
43
1.0000000
50
90.0000000
0
INSERT
8
0
2
P_X1_92Y_34MM
10
6.7750787
20
4.8523701
41
1.0000000
42
1.0000000
43
1.0000000
50
0.0000000
0
INSERT
8
0
2
P_X1_92Y_34MM
10
6.7750787
20
4.8720551
41
1.0000000
42
1.0000000
43
1.0000000
50
0.0000000
0
INSERT
8
0
2
P_X1_92Y_34MM
10
6.7750787
20
4.8917402
41
1.0000000
42
1.0000000
43
1.0000000
50
0.0000000
0
INSERT
8
0
2
P_X1_92Y_34MM
10
6.7750787
20
4.9114252
41
1.0000000
42
1.0000000
43
1.0000000
50
0.0000000
0
INSERT
8
0
2
P_X1_92Y_34MM
10
6.7750787
20
4.9311102
41
1.0000000
42
1.0000000
43
1.0000000
50
0.0000000
0
INSERT
8
0
2
via20
10
6.8376063
20
4.8920000
41
1.0000000
42
1.0000000
43
1.0000000
50
180.0000000
0
INSERT
8
0
2
via20
10
6.8396063
20
4.8510000
41
1.0000000
42
1.0000000
43
1.0000000
50
180.0000000
0
INSERT
8
0
2
via20
10
6.8556063
20
4.8730000
41
1.0000000
42
1.0000000
43
1.0000000
50
180.0000000
0
INSERT
8
0
2
via20
10
6.6836063
20
4.7190000
41
1.0000000
42
1.0000000
43
1.0000000
50
90.0000000
0
INSERT
8
0
2
via20
10
6.7036063
20
4.7360000
41
1.0000000
42
1.0000000
43
1.0000000
50
90.0000000
0
INSERT
8
0
2
via20
10
6.8576063
20
4.9120000
41
1.0000000
42
1.0000000
43
1.0000000
50
180.0000000
0
INSERT
8
0
2
via20
10
6.8396063
20
4.9310000
41
1.0000000
42
1.0000000
43
1.0000000
50
180.0000000
0
INSERT
8
0
2
via20
10
6.7236063
20
4.7190000
41
1.0000000
42
1.0000000
43
1.0000000
50
90.0000000
0
INSERT
8
0
2
PIN97
10
0.0000000
20
0.0000000
41
1.0000000
42
1.0000000
43
1.0000000
50
0.0000000
0
INSERT
8
0
2
PIN99
10
0.0000000
20
0.0000000
41
1.0000000
42
1.0000000
43
1.0000000
50
0.0000000
0
INSERT
8
0
2
PIN98
10
0.0000000
20
0.0000000
41
1.0000000
42
1.0000000
43
1.0000000
50
0.0000000
0
INSERT
8
0
2
PIN101
10
0.0000000
20
0.0000000
41
1.0000000
42
1.0000000
43
1.0000000
50
0.0000000
0
INSERT
8
0
2
PIN100
10
0.0000000
20
0.0000000
41
1.0000000
42
1.0000000
43
1.0000000
50
0.0000000
0
INSERT
8
0
2
PIN91
10
0.0000000
20
0.0000000
41
1.0000000
42
1.0000000
43
1.0000000
50
0.0000000
0
INSERT
8
0
2
PIN92
10
0.0000000
20
0.0000000
41
1.0000000
42
1.0000000
43
1.0000000
50
0.0000000
0
INSERT
8
0
2
PIN93
10
0.0000000
20
0.0000000
41
1.0000000
42
1.0000000
43
1.0000000
50
0.0000000
0
INSERT
8
0
2
PIN94
10
0.0000000
20
0.0000000
41
1.0000000
42
1.0000000
43
1.0000000
50
0.0000000
0
INSERT
8
0
2
PIN95
10
0.0000000
20
0.0000000
41
1.0000000
42
1.0000000
43
1.0000000
50
0.0000000
0
INSERT
8
0
2
PIN96
10
0.0000000
20
0.0000000
41
1.0000000
42
1.0000000
43
1.0000000
50
0.0000000
0
INSERT
8
0
2
PIN113
10
0.0000000
20
0.0000000
41
1.0000000
42
1.0000000
43
1.0000000
50
0.0000000
0
INSERT
8
0
2
PIN114
10
0.0000000
20
0.0000000
41
1.0000000
42
1.0000000
43
1.0000000
50
0.0000000
0
INSERT
8
0
2
PIN115
10
0.0000000
20
0.0000000
41
1.0000000
42
1.0000000
43
1.0000000
50
0.0000000
0
INSERT
8
0
2
PIN116
10
0.0000000
20
0.0000000
41
1.0000000
42
1.0000000
43
1.0000000
50
0.0000000
0
INSERT
8
0
2
PIN117
10
0.0000000
20
0.0000000
41
1.0000000
42
1.0000000
43
1.0000000
50
0.0000000
0
INSERT
8
0
2
PIN118
10
0.0000000
20
0.0000000
41
1.0000000
42
1.0000000
43
1.0000000
50
0.0000000
0
INSERT
8
0
2
PIN111
10
0.0000000
20
0.0000000
41
1.0000000
42
1.0000000
43
1.0000000
50
0.0000000
0
INSERT
8
0
2
PIN112
10
0.0000000
20
0.0000000
41
1.0000000
42
1.0000000
43
1.0000000
50
0.0000000
0
INSERT
8
0
2
PIN107
10
0.0000000
20
0.0000000
41
1.0000000
42
1.0000000
43
1.0000000
50
0.0000000
0
INSERT
8
0
2
PIN108
10
0.0000000
20
0.0000000
41
1.0000000
42
1.0000000
43
1.0000000
50
0.0000000
0
INSERT
8
0
2
PIN109
10
0.0000000
20
0.0000000
41
1.0000000
42
1.0000000
43
1.0000000
50
0.0000000
0
INSERT
8
0
2
PIN110
10
0.0000000
20
0.0000000
41
1.0000000
42
1.0000000
43
1.0000000
50
0.0000000
0
INSERT
8
0
2
PIN106
10
0.0000000
20
0.0000000
41
1.0000000
42
1.0000000
43
1.0000000
50
0.0000000
0
INSERT
8
0
2
PIN105
10
0.0000000
20
0.0000000
41
1.0000000
42
1.0000000
43
1.0000000
50
0.0000000
0
INSERT
8
0
2
PIN102
10
0.0000000
20
0.0000000
41
1.0000000
42
1.0000000
43
1.0000000
50
0.0000000
0
INSERT
8
0
2
PIN104
10
0.0000000
20
0.0000000
41
1.0000000
42
1.0000000
43
1.0000000
50
0.0000000
0
INSERT
8
0
2
PIN103
10
0.0000000
20
0.0000000
41
1.0000000
42
1.0000000
43
1.0000000
50
0.0000000
0
INSERT
8
0
2
P_C5_0D2_5__1_
10
7.0748000
20
5.5000000
41
1.0000000
42
1.0000000
43
1.0000000
50
0.0000000
0
INSERT
8
0
2
via20
10
6.6826063
20
5.2620000
41
1.0000000
42
1.0000000
43
1.0000000
50
270.0000000
0
INSERT
8
0
2
via20
10
6.6626063
20
5.2820000
41
1.0000000
42
1.0000000
43
1.0000000
50
270.0000000
0
INSERT
8
0
2
via20
10
6.6436063
20
5.2640000
41
1.0000000
42
1.0000000
43
1.0000000
50
270.0000000
0
INSERT
8
0
2
via20
10
6.6236063
20
5.2820000
41
1.0000000
42
1.0000000
43
1.0000000
50
270.0000000
0
INSERT
8
0
2
via20
10
6.6046063
20
5.2640000
41
1.0000000
42
1.0000000
43
1.0000000
50
270.0000000
0
INSERT
8
0
2
via20
10
6.5836063
20
5.2820000
41
1.0000000
42
1.0000000
43
1.0000000
50
270.0000000
0
INSERT
8
0
2
via20
10
6.7236063
20
5.2640000
41
1.0000000
42
1.0000000
43
1.0000000
50
270.0000000
0
INSERT
8
0
2
via20
10
6.7016063
20
5.2800000
41
1.0000000
42
1.0000000
43
1.0000000
50
270.0000000
0
INSERT
8
0
2
P_SMASK1
10
7.4450000
20
5.5000000
41
1.0000000
42
1.0000000
43
1.0000000
50
270.0000000
0
INSERT
8
0
2
P_C1_55U__1_
10
7.2441000
20
5.6693000
41
1.0000000
42
1.0000000
43
1.0000000
50
0.0000000
0
INSERT
8
0
2
via261
10
7.3950000
20
4.8350000
41
1.0000000
42
1.0000000
43
1.0000000
50
270.0000000
0
INSERT
8
0
2
via261
10
7.5000000
20
4.8350000
41
1.0000000
42
1.0000000
43
1.0000000
50
270.0000000
0
INSERT
8
0
2
via261
10
7.3950000
20
5.1650000
41
1.0000000
42
1.0000000
43
1.0000000
50
270.0000000
0
INSERT
8
0
2
via261
10
7.5000000
20
5.1650000
41
1.0000000
42
1.0000000
43
1.0000000
50
270.0000000
0
INSERT
8
0
2
P_SMASK1
10
7.4450000
20
4.5000000
41
1.0000000
42
1.0000000
43
1.0000000
50
270.0000000
0
INSERT
8
0
2
P_C5_0D2_5__1_
10
7.0748000
20
4.5000000
41
1.0000000
42
1.0000000
43
1.0000000
50
0.0000000
0
INSERT
8
0
2
P_C1_55U__1_
10
7.2441000
20
4.3307000
41
1.0000000
42
1.0000000
43
1.0000000
50
0.0000000
0
INSERT
8
0
2
via261
10
7.5000000
20
4.1650000
41
1.0000000
42
1.0000000
43
1.0000000
50
270.0000000
0
INSERT
8
0
2
via261
10
7.3950000
20
4.1650000
41
1.0000000
42
1.0000000
43
1.0000000
50
270.0000000
0
INSERT
8
0
2
via261
10
7.5000000
20
3.8350000
41
1.0000000
42
1.0000000
43
1.0000000
50
270.0000000
0
INSERT
8
0
2
via261
10
7.3950000
20
3.8350000
41
1.0000000
42
1.0000000
43
1.0000000
50
270.0000000
0
INSERT
8
0
2
P_SMASK1
10
4.5000000
20
2.5500000
41
1.0000000
42
1.0000000
43
1.0000000
50
0.0000000
0
INSERT
8
0
2
P_SMASK1
10
5.5000000
20
2.5500000
41
1.0000000
42
1.0000000
43
1.0000000
50
0.0000000
0
INSERT
8
0
2
P_SMASK1
10
7.4550000
20
3.5000000
41
1.0000000
42
1.0000000
43
1.0000000
50
90.0000000
0
INSERT
8
0
2
P_SMASK1
10
6.5000000
20
2.5550000
41
1.0000000
42
1.0000000
43
1.0000000
50
180.0000000
0
INSERT
8
0
2
via261
10
4.1650000
20
2.5000000
41
1.0000000
42
1.0000000
43
1.0000000
50
180.0000000
0
INSERT
8
0
2
via261
10
4.1650000
20
2.6050000
41
1.0000000
42
1.0000000
43
1.0000000
50
180.0000000
0
INSERT
8
0
2
via261
10
3.8350000
20
2.5000000
41
1.0000000
42
1.0000000
43
1.0000000
50
180.0000000
0
INSERT
8
0
2
via261
10
3.8350000
20
2.6050000
41
1.0000000
42
1.0000000
43
1.0000000
50
180.0000000
0
INSERT
8
0
2
via261
10
6.1650000
20
2.5000000
41
1.0000000
42
1.0000000
43
1.0000000
50
180.0000000
0
INSERT
8
0
2
via261
10
6.1650000
20
2.6050000
41
1.0000000
42
1.0000000
43
1.0000000
50
180.0000000
0
INSERT
8
0
2
via261
10
5.8350000
20
2.5000000
41
1.0000000
42
1.0000000
43
1.0000000
50
180.0000000
0
INSERT
8
0
2
via261
10
5.8350000
20
2.6050000
41
1.0000000
42
1.0000000
43
1.0000000
50
180.0000000
0
INSERT
8
0
2
via261
10
7.5000000
20
3.1650000
41
1.0000000
42
1.0000000
43
1.0000000
50
270.0000000
0
INSERT
8
0
2
via261
10
7.3950000
20
3.1650000
41
1.0000000
42
1.0000000
43
1.0000000
50
270.0000000
0
INSERT
8
0
2
via261
10
7.5000000
20
2.8250000
41
1.0000000
42
1.0000000
43
1.0000000
50
270.0000000
0
INSERT
8
0
2
via261
10
7.3950000
20
2.8250000
41
1.0000000
42
1.0000000
43
1.0000000
50
270.0000000
0
INSERT
8
0
2
via261
10
4.8350000
20
2.6050000
41
1.0000000
42
1.0000000
43
1.0000000
50
0.0000000
0
INSERT
8
0
2
via261
10
4.8350000
20
2.5000000
41
1.0000000
42
1.0000000
43
1.0000000
50
0.0000000
0
INSERT
8
0
2
via261
10
5.1650000
20
2.6050000
41
1.0000000
42
1.0000000
43
1.0000000
50
0.0000000
0
INSERT
8
0
2
via261
10
5.1650000
20
2.5000000
41
1.0000000
42
1.0000000
43
1.0000000
50
0.0000000
0
INSERT
8
0
2
via261
10
6.8350000
20
2.6050000
41
1.0000000
42
1.0000000
43
1.0000000
50
0.0000000
0
INSERT
8
0
2
via261
10
6.8350000
20
2.5000000
41
1.0000000
42
1.0000000
43
1.0000000
50
0.0000000
0
INSERT
8
0
2
via261
10
7.1750000
20
2.6050000
41
1.0000000
42
1.0000000
43
1.0000000
50
0.0000000
0
INSERT
8
0
2
via261
10
7.1750000
20
2.5000000
41
1.0000000
42
1.0000000
43
1.0000000
50
0.0000000
0
INSERT
8
0
2
P_C150D1251
10
7.4000000
20
1.8500000
41
1.0000000
42
1.0000000
43
1.0000000
50
0.0000000
0
INSERT
8
0
2
2
10
0.0000000
20
0.0000000
41
1.0000000
42
1.0000000
43
1.0000000
50
0.0000000
0
INSERT
8
0
2
P_C126D126U
10
2.6000000
20
7.7000000
41
1.0000000
42
1.0000000
43
1.0000000
50
0.0000000
0
INSERT
8
0
2
P_C210U__2_
10
1.9150000
20
8.0850000
41
1.0000000
42
1.0000000
43
1.0000000
50
0.0000000
0
INSERT
8
0
2
P_C150D1251
10
2.6000000
20
8.1500000
41
1.0000000
42
1.0000000
43
1.0000000
50
0.0000000
0
INSERT
8
0
2
RF1S1
10
0.0000000
20
0.0000000
41
1.0000000
42
1.0000000
43
1.0000000
50
0.0000000
0
INSERT
8
0
2
1
10
0.0000000
20
0.0000000
41
1.0000000
42
1.0000000
43
1.0000000
50
0.0000000
0
INSERT
8
0
2
P_C210U__2_
10
8.0850000
20
8.0850000
41
1.0000000
42
1.0000000
43
1.0000000
50
0.0000000
0
INSERT
8
0
2
P_C126D126U
10
7.7000000
20
7.4000000
41
1.0000000
42
1.0000000
43
1.0000000
50
0.0000000
0
INSERT
8
0
2
P_C210U__2_
10
8.0850000
20
1.9150000
41
1.0000000
42
1.0000000
43
1.0000000
50
0.0000000
0
INSERT
8
0
2
P_C150D1251
10
8.1500000
20
7.4000000
41
1.0000000
42
1.0000000
43
1.0000000
50
0.0000000
0
INSERT
8
0
2
RF1S3
10
0.0000000
20
0.0000000
41
1.0000000
42
1.0000000
43
1.0000000
50
0.0000000
0
INSERT
8
Bottom
2
UNIT_DISC
10
1.8500000
20
3.0000000
41
0.1500000
42
0.1500000
43
0.1500000
50
0.0000000
0
INSERT
8
Bottom
2
UNIT_DISC
10
1.8500000
20
4.0000000
41
0.1500000
42
0.1500000
43
0.1500000
50
0.0000000
0
POLYLINE
8
Bottom
6
CONTINUOUS
66
1
70
0
40
0.1500000
41
0.1500000
0
VERTEX
8
Bottom
10
1.8500000
20
3.0000000
42
0.0000000
0
VERTEX
8
Bottom
10
1.8500000
20
4.0000000
42
0.0000000
0
SEQEND
0
INSERT
8
Bottom
2
UNIT_DISC
10
3.0000000
20
1.8500000
41
0.1500000
42
0.1500000
43
0.1500000
50
0.0000000
0
INSERT
8
Bottom
2
UNIT_DISC
10
4.0000000
20
1.8500000
41
0.1500000
42
0.1500000
43
0.1500000
50
0.0000000
0
POLYLINE
8
Bottom
6
CONTINUOUS
66
1
70
0
40
0.1500000
41
0.1500000
0
VERTEX
8
Bottom
10
3.0000000
20
1.8500000
42
0.0000000
0
VERTEX
8
Bottom
10
4.0000000
20
1.8500000
42
0.0000000
0
SEQEND
0
INSERT
8
Bottom
2
UNIT_DISC
10
2.8250000
20
2.6050000
41
0.0300000
42
0.0300000
43
0.0300000
50
0.0000000
0
INSERT
8
Bottom
2
UNIT_DISC
10
2.8250000
20
2.5000000
41
0.0300000
42
0.0300000
43
0.0300000
50
0.0000000
0
POLYLINE
8
Bottom
6
CONTINUOUS
66
1
70
0
40
0.0300000
41
0.0300000
0
VERTEX
8
Bottom
10
2.8250000
20
2.6050000
42
0.0000000
0
VERTEX
8
Bottom
10
2.8250000
20
2.5000000
42
0.0000000
0
SEQEND
0
INSERT
8
Bottom
2
UNIT_DISC
10
2.5000000
20
3.1650000
41
0.0300000
42
0.0300000
43
0.0300000
50
0.0000000
0
INSERT
8
Bottom
2
UNIT_DISC
10
2.6050000
20
3.1650000
41
0.0300000
42
0.0300000
43
0.0300000
50
0.0000000
0
POLYLINE
8
Bottom
6
CONTINUOUS
66
1
70
0
40
0.0300000
41
0.0300000
0
VERTEX
8
Bottom
10
2.5000000
20
3.1650000
42
0.0000000
0
VERTEX
8
Bottom
10
2.6050000
20
3.1650000
42
0.0000000
0
SEQEND
0
INSERT
8
Bottom
2
UNIT_DISC
10
2.5000000
20
2.8250000
41
0.0300000
42
0.0300000
43
0.0300000
50
0.0000000
0
INSERT
8
Bottom
2
UNIT_DISC
10
2.6050000
20
2.8250000
41
0.0300000
42
0.0300000
43
0.0300000
50
0.0000000
0
POLYLINE
8
Bottom
6
CONTINUOUS
66
1
70
0
40
0.0300000
41
0.0300000
0
VERTEX
8
Bottom
10
2.5000000
20
2.8250000
42
0.0000000
0
VERTEX
8
Bottom
10
2.6050000
20
2.8250000
42
0.0000000
0
SEQEND
0
INSERT
8
Bottom
2
UNIT_DISC
10
3.1650000
20
2.6050000
41
0.0300000
42
0.0300000
43
0.0300000
50
0.0000000
0
INSERT
8
Bottom
2
UNIT_DISC
10
3.1650000
20
2.5000000
41
0.0300000
42
0.0300000
43
0.0300000
50
0.0000000
0
POLYLINE
8
Bottom
6
CONTINUOUS
66
1
70
0
40
0.0300000
41
0.0300000
0
VERTEX
8
Bottom
10
3.1650000
20
2.6050000
42
0.0000000
0
VERTEX
8
Bottom
10
3.1650000
20
2.5000000
42
0.0000000
0
SEQEND
0
INSERT
8
Bottom
2
UNIT_DISC
10
1.8500000
20
7.0000000
41
0.1500000
42
0.1500000
43
0.1500000
50
0.0000000
0
INSERT
8
Bottom
2
UNIT_DISC
10
1.8500000
20
3.0000000
41
0.1500000
42
0.1500000
43
0.1500000
50
0.0000000
0
POLYLINE
8
Bottom
6
CONTINUOUS
66
1
70
0
40
0.1500000
41
0.1500000
0
VERTEX
8
Bottom
10
1.8500000
20
7.0000000
42
0.0000000
0
VERTEX
8
Bottom
10
1.8500000
20
3.0000000
42
0.0000000
0
SEQEND
0
INSERT
8
Bottom
2
UNIT_DISC
10
3.0000000
20
1.8500000
41
0.1500000
42
0.1500000
43
0.1500000
50
0.0000000
0
INSERT
8
Bottom
2
UNIT_DISC
10
5.0000000
20
1.8500000
41
0.1500000
42
0.1500000
43
0.1500000
50
0.0000000
0
POLYLINE
8
Bottom
6
CONTINUOUS
66
1
70
0
40
0.1500000
41
0.1500000
0
VERTEX
8
Bottom
10
3.0000000
20
1.8500000
42
0.0000000
0
VERTEX
8
Bottom
10
5.0000000
20
1.8500000
42
0.0000000
0
SEQEND
0
INSERT
8
Bottom
2
UNIT_DISC
10
1.8500000
20
2.6000000
41
0.1500000
42
0.1500000
43
0.1500000
50
0.0000000
0
INSERT
8
Bottom
2
UNIT_DISC
10
1.8500000
20
3.0000000
41
0.1500000
42
0.1500000
43
0.1500000
50
0.0000000
0
POLYLINE
8
Bottom
6
CONTINUOUS
66
1
70
0
40
0.1500000
41
0.1500000
0
VERTEX
8
Bottom
10
1.8500000
20
2.6000000
42
0.0000000
0
VERTEX
8
Bottom
10
1.8500000
20
3.0000000
42
0.0000000
0
SEQEND
0
INSERT
8
Bottom
2
UNIT_DISC
10
1.8500000
20
3.0000000
41
0.1500000
42
0.1500000
43
0.1500000
50
0.0000000
0
INSERT
8
Bottom
2
UNIT_DISC
10
1.8500000
20
2.6000000
41
0.1500000
42
0.1500000
43
0.1500000
50
0.0000000
0
POLYLINE
8
Bottom
6
CONTINUOUS
66
1
70
0
40
0.1500000
41
0.1500000
0
VERTEX
8
Bottom
10
1.8500000
20
3.0000000
42
0.0000000
0
VERTEX
8
Bottom
10
1.8500000
20
2.6000000
42
0.0000000
0
SEQEND
0
INSERT
8
Bottom
2
UNIT_DISC
10
2.1000000
20
1.8500000
41
0.1500000
42
0.1500000
43
0.1500000
50
0.0000000
0
INSERT
8
Bottom
2
UNIT_DISC
10
3.0000000
20
1.8500000
41
0.1500000
42
0.1500000
43
0.1500000
50
0.0000000
0
POLYLINE
8
Bottom
6
CONTINUOUS
66
1
70
0
40
0.1500000
41
0.1500000
0
VERTEX
8
Bottom
10
2.1000000
20
1.8500000
42
0.0000000
0
VERTEX
8
Bottom
10
3.0000000
20
1.8500000
42
0.0000000
0
SEQEND
0
INSERT
8
Bottom
2
UNIT_DISC
10
2.1000000
20
1.8500000
41
0.1500000
42
0.1500000
43
0.1500000
50
0.0000000
0
INSERT
8
Bottom
2
UNIT_DISC
10
3.0000000
20
1.8500000
41
0.1500000
42
0.1500000
43
0.1500000
50
0.0000000
0
POLYLINE
8
Bottom
6
CONTINUOUS
66
1
70
0
40
0.1500000
41
0.1500000
0
VERTEX
8
Bottom
10
2.1000000
20
1.8500000
42
0.0000000
0
VERTEX
8
Bottom
10
3.0000000
20
1.8500000
42
0.0000000
0
SEQEND
0
INSERT
8
Bottom
2
UNIT_DISC
10
1.8500000
20
2.1000000
41
0.1500000
42
0.1500000
43
0.1500000
50
0.0000000
0
INSERT
8
Bottom
2
UNIT_DISC
10
1.8500000
20
2.6000000
41
0.1500000
42
0.1500000
43
0.1500000
50
0.0000000
0
POLYLINE
8
Bottom
6
CONTINUOUS
66
1
70
0
40
0.1500000
41
0.1500000
0
VERTEX
8
Bottom
10
1.8500000
20
2.1000000
42
0.0000000
0
VERTEX
8
Bottom
10
1.8500000
20
2.6000000
42
0.0000000
0
SEQEND
0
INSERT
8
Bottom
2
UNIT_DISC
10
1.8500000
20
2.6000000
41
0.1500000
42
0.1500000
43
0.1500000
50
0.0000000
0
INSERT
8
Bottom
2
UNIT_DISC
10
1.8500000
20
2.1000000
41
0.1500000
42
0.1500000
43
0.1500000
50
0.0000000
0
POLYLINE
8
Bottom
6
CONTINUOUS
66
1
70
0
40
0.1500000
41
0.1500000
0
VERTEX
8
Bottom
10
1.8500000
20
2.6000000
42
0.0000000
0
VERTEX
8
Bottom
10
1.8500000
20
2.1000000
42
0.0000000
0
SEQEND
0
TEXT
8
Bottom
10
2.9550000
20
5.7320000
40
0.1000000
1
1
50
0.0
7
STANDARD
71
2
72
0
0
INSERT
8
Bottom
2
UNIT_DISC
10
3.3343937
20
5.2670000
41
0.0060000
42
0.0060000
43
0.0060000
50
0.0000000
0
INSERT
8
Bottom
2
UNIT_DISC
10
3.3333937
20
5.2670000
41
0.0060000
42
0.0060000
43
0.0060000
50
0.0000000
0
POLYLINE
8
Bottom
6
CONTINUOUS
66
1
70
0
40
0.0060000
41
0.0060000
0
VERTEX
8
Bottom
10
3.3343937
20
5.2670000
42
0.0000000
0
VERTEX
8
Bottom
10
3.3333937
20
5.2670000
42
0.0000000
0
SEQEND
0
INSERT
8
Bottom
2
UNIT_DISC
10
3.3743937
20
5.2650000
41
0.0060000
42
0.0060000
43
0.0060000
50
0.0000000
0
INSERT
8
Bottom
2
UNIT_DISC
10
3.3753937
20
5.2650000
41
0.0060000
42
0.0060000
43
0.0060000
50
0.0000000
0
POLYLINE
8
Bottom
6
CONTINUOUS
66
1
70
0
40
0.0060000
41
0.0060000
0
VERTEX
8
Bottom
10
3.3743937
20
5.2650000
42
0.0000000
0
VERTEX
8
Bottom
10
3.3753937
20
5.2650000
42
0.0000000
0
SEQEND
0
INSERT
8
Bottom
2
UNIT_DISC
10
3.4143937
20
5.2660000
41
0.0060000
42
0.0060000
43
0.0060000
50
0.0000000
0
INSERT
8
Bottom
2
UNIT_DISC
10
3.4133937
20
5.2660000
41
0.0060000
42
0.0060000
43
0.0060000
50
0.0000000
0
POLYLINE
8
Bottom
6
CONTINUOUS
66
1
70
0
40
0.0060000
41
0.0060000
0
VERTEX
8
Bottom
10
3.4143937
20
5.2660000
42
0.0000000
0
VERTEX
8
Bottom
10
3.4133937
20
5.2660000
42
0.0000000
0
SEQEND
0
INSERT
8
Bottom
2
UNIT_DISC
10
3.3183937
20
4.7350000
41
0.0070000
42
0.0070000
43
0.0070000
50
0.0000000
0
INSERT
8
Bottom
2
UNIT_DISC
10
3.3183937
20
4.7340000
41
0.0070000
42
0.0070000
43
0.0070000
50
0.0000000
0
POLYLINE
8
Bottom
6
CONTINUOUS
66
1
70
0
40
0.0070000
41
0.0070000
0
VERTEX
8
Bottom
10
3.3183937
20
4.7350000
42
0.0000000
0
VERTEX
8
Bottom
10
3.3183937
20
4.7340000
42
0.0000000
0
SEQEND
0
INSERT
8
Bottom
2
UNIT_DISC
10
3.3183937
20
4.7390000
41
0.0070000
42
0.0070000
43
0.0070000
50
0.0000000
0
INSERT
8
Bottom
2
UNIT_DISC
10
3.3183937
20
4.7350000
41
0.0070000
42
0.0070000
43
0.0070000
50
0.0000000
0
POLYLINE
8
Bottom
6
CONTINUOUS
66
1
70
0
40
0.0070000
41
0.0070000
0
VERTEX
8
Bottom
10
3.3183937
20
4.7390000
42
0.0000000
0
VERTEX
8
Bottom
10
3.3183937
20
4.7350000
42
0.0000000
0
SEQEND
0
INSERT
8
Bottom
2
UNIT_DISC
10
3.3183937
20
4.7390000
41
0.0070000
42
0.0070000
43
0.0070000
50
0.0000000
0
INSERT
8
Bottom
2
UNIT_DISC
10
3.3193937
20
4.7340000
41
0.0070000
42
0.0070000
43
0.0070000
50
0.0000000
0
POLYLINE
8
Bottom
6
CONTINUOUS
66
1
70
0
40
0.0070000
41
0.0070000
0
VERTEX
8
Bottom
10
3.3183937
20
4.7390000
42
0.0000000
0
VERTEX
8
Bottom
10
3.3193937
20
4.7340000
42
0.0000000
0
SEQEND
0
INSERT
8
Bottom
2
UNIT_DISC
10
3.3193937
20
4.7340000
41
0.0070000
42
0.0070000
43
0.0070000
50
0.0000000
0
INSERT
8
Bottom
2
UNIT_DISC
10
3.3183937
20
4.7340000
41
0.0070000
42
0.0070000
43
0.0070000
50
0.0000000
0
POLYLINE
8
Bottom
6
CONTINUOUS
66
1
70
0
40
0.0070000
41
0.0070000
0
VERTEX
8
Bottom
10
3.3193937
20
4.7340000
42
0.0000000
0
VERTEX
8
Bottom
10
3.3183937
20
4.7340000
42
0.0000000
0
SEQEND
0
INSERT
8
Bottom
2
UNIT_DISC
10
3.3183937
20
4.7340000
41
0.0070000
42
0.0070000
43
0.0070000
50
0.0000000
0
INSERT
8
Bottom
2
UNIT_DISC
10
3.3153937
20
4.7350000
41
0.0070000
42
0.0070000
43
0.0070000
50
0.0000000
0
POLYLINE
8
Bottom
6
CONTINUOUS
66
1
70
0
40
0.0070000
41
0.0070000
0
VERTEX
8
Bottom
10
3.3183937
20
4.7340000
42
0.0000000
0
VERTEX
8
Bottom
10
3.3153937
20
4.7350000
42
0.0000000
0
SEQEND
0
INSERT
8
Bottom
2
UNIT_DISC
10
3.1603937
20
5.1060000
41
0.0070000
42
0.0070000
43
0.0070000
50
0.0000000
0
INSERT
8
Bottom
2
UNIT_DISC
10
3.1603937
20
5.1050000
41
0.0070000
42
0.0070000
43
0.0070000
50
0.0000000
0
POLYLINE
8
Bottom
6
CONTINUOUS
66
1
70
0
40
0.0070000
41
0.0070000
0
VERTEX
8
Bottom
10
3.1603937
20
5.1060000
42
0.0000000
0
VERTEX
8
Bottom
10
3.1603937
20
5.1050000
42
0.0000000
0
SEQEND
0
INSERT
8
Bottom
2
UNIT_DISC
10
3.1603937
20
5.0680000
41
0.0060000
42
0.0060000
43
0.0060000
50
0.0000000
0
INSERT
8
Bottom
2
UNIT_DISC
10
3.1603937
20
5.0700000
41
0.0060000
42
0.0060000
43
0.0060000
50
0.0000000
0
POLYLINE
8
Bottom
6
CONTINUOUS
66
1
70
0
40
0.0060000
41
0.0060000
0
VERTEX
8
Bottom
10
3.1603937
20
5.0680000
42
0.0000000
0
VERTEX
8
Bottom
10
3.1603937
20
5.0700000
42
0.0000000
0
SEQEND
0
INSERT
8
Bottom
2
UNIT_DISC
10
3.1603937
20
5.1070000
41
0.0060000
42
0.0060000
43
0.0060000
50
0.0000000
0
INSERT
8
Bottom
2
UNIT_DISC
10
3.1603937
20
5.1060000
41
0.0060000
42
0.0060000
43
0.0060000
50
0.0000000
0
POLYLINE
8
Bottom
6
CONTINUOUS
66
1
70
0
40
0.0060000
41
0.0060000
0
VERTEX
8
Bottom
10
3.1603937
20
5.1070000
42
0.0000000
0
VERTEX
8
Bottom
10
3.1603937
20
5.1060000
42
0.0000000
0
SEQEND
0
INSERT
8
Bottom
2
UNIT_DISC
10
3.1403937
20
5.0870000
41
0.0060000
42
0.0060000
43
0.0060000
50
0.0000000
0
INSERT
8
Bottom
2
UNIT_DISC
10
3.1423937
20
5.0870000
41
0.0060000
42
0.0060000
43
0.0060000
50
0.0000000
0
POLYLINE
8
Bottom
6
CONTINUOUS
66
1
70
0
40
0.0060000
41
0.0060000
0
VERTEX
8
Bottom
10
3.1403937
20
5.0870000
42
0.0000000
0
VERTEX
8
Bottom
10
3.1423937
20
5.0870000
42
0.0000000
0
SEQEND
0
INSERT
8
Bottom
2
UNIT_DISC
10
3.1403937
20
5.0870000
41
0.0060000
42
0.0060000
43
0.0060000
50
0.0000000
0
INSERT
8
Bottom
2
UNIT_DISC
10
3.1403937
20
5.0900000
41
0.0060000
42
0.0060000
43
0.0060000
50
0.0000000
0
POLYLINE
8
Bottom
6
CONTINUOUS
66
1
70
0
40
0.0060000
41
0.0060000
0
VERTEX
8
Bottom
10
3.1403937
20
5.0870000
42
0.0000000
0
VERTEX
8
Bottom
10
3.1403937
20
5.0900000
42
0.0000000
0
SEQEND
0
INSERT
8
Bottom
2
UNIT_DISC
10
3.1603937
20
5.0280000
41
0.0060000
42
0.0060000
43
0.0060000
50
0.0000000
0
INSERT
8
Bottom
2
UNIT_DISC
10
3.1603937
20
5.0290000
41
0.0060000
42
0.0060000
43
0.0060000
50
0.0000000
0
POLYLINE
8
Bottom
6
CONTINUOUS
66
1
70
0
40
0.0060000
41
0.0060000
0
VERTEX
8
Bottom
10
3.1603937
20
5.0280000
42
0.0000000
0
VERTEX
8
Bottom
10
3.1603937
20
5.0290000
42
0.0000000
0
SEQEND
0
INSERT
8
Bottom
2
UNIT_DISC
10
3.3583937
20
4.7330000
41
0.0060000
42
0.0060000
43
0.0060000
50
0.0000000
0
INSERT
8
Bottom
2
UNIT_DISC
10
3.3573937
20
4.7330000
41
0.0060000
42
0.0060000
43
0.0060000
50
0.0000000
0
POLYLINE
8
Bottom
6
CONTINUOUS
66
1
70
0
40
0.0060000
41
0.0060000
0
VERTEX
8
Bottom
10
3.3583937
20
4.7330000
42
0.0000000
0
VERTEX
8
Bottom
10
3.3573937
20
4.7330000
42
0.0000000
0
SEQEND
0
INSERT
8
Bottom
2
UNIT_DISC
10
3.1653937
20
4.9100000
41
0.0070000
42
0.0070000
43
0.0070000
50
0.0000000
0
INSERT
8
Bottom
2
UNIT_DISC
10
3.1623937
20
4.9100000
41
0.0070000
42
0.0070000
43
0.0070000
50
0.0000000
0
POLYLINE
8
Bottom
6
CONTINUOUS
66
1
70
0
40
0.0070000
41
0.0070000
0
VERTEX
8
Bottom
10
3.1653937
20
4.9100000
42
0.0000000
0
VERTEX
8
Bottom
10
3.1623937
20
4.9100000
42
0.0000000
0
SEQEND
0
INSERT
8
Bottom
2
UNIT_DISC
10
3.1603937
20
4.9490000
41
0.0070000
42
0.0070000
43
0.0070000
50
0.0000000
0
INSERT
8
Bottom
2
UNIT_DISC
10
3.1603937
20
4.9500000
41
0.0070000
42
0.0070000
43
0.0070000
50
0.0000000
0
POLYLINE
8
Bottom
6
CONTINUOUS
66
1
70
0
40
0.0070000
41
0.0070000
0
VERTEX
8
Bottom
10
3.1603937
20
4.9490000
42
0.0000000
0
VERTEX
8
Bottom
10
3.1603937
20
4.9500000
42
0.0000000
0
SEQEND
0
INSERT
8
Bottom
2
UNIT_DISC
10
3.1613937
20
4.9880000
41
0.0060000
42
0.0060000
43
0.0060000
50
0.0000000
0
INSERT
8
Bottom
2
UNIT_DISC
10
3.1613937
20
4.9890000
41
0.0060000
42
0.0060000
43
0.0060000
50
0.0000000
0
POLYLINE
8
Bottom
6
CONTINUOUS
66
1
70
0
40
0.0060000
41
0.0060000
0
VERTEX
8
Bottom
10
3.1613937
20
4.9880000
42
0.0000000
0
VERTEX
8
Bottom
10
3.1613937
20
4.9890000
42
0.0000000
0
SEQEND
0
INSERT
8
Bottom
2
UNIT_DISC
10
3.4363937
20
4.7330000
41
0.0060000
42
0.0060000
43
0.0060000
50
0.0000000
0
INSERT
8
Bottom
2
UNIT_DISC
10
3.4343937
20
4.7330000
41
0.0060000
42
0.0060000
43
0.0060000
50
0.0000000
0
POLYLINE
8
Bottom
6
CONTINUOUS
66
1
70
0
40
0.0060000
41
0.0060000
0
VERTEX
8
Bottom
10
3.4363937
20
4.7330000
42
0.0000000
0
VERTEX
8
Bottom
10
3.4343937
20
4.7330000
42
0.0000000
0
SEQEND
0
INSERT
8
Bottom
2
UNIT_DISC
10
3.4763937
20
4.7350000
41
0.0060000
42
0.0060000
43
0.0060000
50
0.0000000
0
INSERT
8
Bottom
2
UNIT_DISC
10
3.4753937
20
4.7350000
41
0.0060000
42
0.0060000
43
0.0060000
50
0.0000000
0
POLYLINE
8
Bottom
6
CONTINUOUS
66
1
70
0
40
0.0060000
41
0.0060000
0
VERTEX
8
Bottom
10
3.4763937
20
4.7350000
42
0.0000000
0
VERTEX
8
Bottom
10
3.4753937
20
4.7350000
42
0.0000000
0
SEQEND
0
INSERT
8
Bottom
2
UNIT_DISC
10
3.5123937
20
5.2850000
41
0.0060000
42
0.0060000
43
0.0060000
50
0.0000000
0
INSERT
8
Bottom
2
UNIT_DISC
10
3.5113937
20
5.2930000
41
0.0060000
42
0.0060000
43
0.0060000
50
0.0000000
0
POLYLINE
8
Bottom
6
CONTINUOUS
66
1
70
0
40
0.0060000
41
0.0060000
0
VERTEX
8
Bottom
10
3.5123937
20
5.2850000
42
0.0000000
0
VERTEX
8
Bottom
10
3.5113937
20
5.2930000
42
0.0000000
0
SEQEND
0
INSERT
8
Bottom
2
UNIT_DISC
10
3.5113937
20
5.2940000
41
0.0060000
42
0.0060000
43
0.0060000
50
0.0000000
0
INSERT
8
Bottom
2
UNIT_DISC
10
3.5113937
20
5.2930000
41
0.0060000
42
0.0060000
43
0.0060000
50
0.0000000
0
POLYLINE
8
Bottom
6
CONTINUOUS
66
1
70
0
40
0.0060000
41
0.0060000
0
VERTEX
8
Bottom
10
3.5113937
20
5.2940000
42
0.0000000
0
VERTEX
8
Bottom
10
3.5113937
20
5.2930000
42
0.0000000
0
SEQEND
0
INSERT
8
Bottom
2
UNIT_DISC
10
3.5323937
20
5.2640000
41
0.0060000
42
0.0060000
43
0.0060000
50
0.0000000
0
INSERT
8
Bottom
2
UNIT_DISC
10
3.5333937
20
5.2650000
41
0.0060000
42
0.0060000
43
0.0060000
50
0.0000000
0
POLYLINE
8
Bottom
6
CONTINUOUS
66
1
70
0
40
0.0060000
41
0.0060000
0
VERTEX
8
Bottom
10
3.5323937
20
5.2640000
42
0.0000000
0
VERTEX
8
Bottom
10
3.5333937
20
5.2650000
42
0.0000000
0
SEQEND
0
INSERT
8
Bottom
2
UNIT_DISC
10
3.6943937
20
5.0110000
41
0.0060000
42
0.0060000
43
0.0060000
50
0.0000000
0
INSERT
8
Bottom
2
UNIT_DISC
10
3.6903937
20
5.0090000
41
0.0060000
42
0.0060000
43
0.0060000
50
0.0000000
0
POLYLINE
8
Bottom
6
CONTINUOUS
66
1
70
0
40
0.0060000
41
0.0060000
0
VERTEX
8
Bottom
10
3.6943937
20
5.0110000
42
0.0000000
0
VERTEX
8
Bottom
10
3.6903937
20
5.0090000
42
0.0000000
0
SEQEND
0
INSERT
8
Bottom
2
UNIT_DISC
10
3.6923937
20
5.0520000
41
0.0060000
42
0.0060000
43
0.0060000
50
0.0000000
0
INSERT
8
Bottom
2
UNIT_DISC
10
3.6903937
20
5.0500000
41
0.0060000
42
0.0060000
43
0.0060000
50
0.0000000
0
POLYLINE
8
Bottom
6
CONTINUOUS
66
1
70
0
40
0.0060000
41
0.0060000
0
VERTEX
8
Bottom
10
3.6923937
20
5.0520000
42
0.0000000
0
VERTEX
8
Bottom
10
3.6903937
20
5.0500000
42
0.0000000
0
SEQEND
0
INSERT
8
Bottom
2
UNIT_DISC
10
3.6903937
20
5.0490000
41
0.0060000
42
0.0060000
43
0.0060000
50
0.0000000
0
INSERT
8
Bottom
2
UNIT_DISC
10
3.6923937
20
5.0520000
41
0.0060000
42
0.0060000
43
0.0060000
50
0.0000000
0
POLYLINE
8
Bottom
6
CONTINUOUS
66
1
70
0
40
0.0060000
41
0.0060000
0
VERTEX
8
Bottom
10
3.6903937
20
5.0490000
42
0.0000000
0
VERTEX
8
Bottom
10
3.6923937
20
5.0520000
42
0.0000000
0
SEQEND
0
INSERT
8
Bottom
2
UNIT_DISC
10
3.6923937
20
5.0520000
41
0.0060000
42
0.0060000
43
0.0060000
50
0.0000000
0
INSERT
8
Bottom
2
UNIT_DISC
10
3.6903937
20
5.0490000
41
0.0060000
42
0.0060000
43
0.0060000
50
0.0000000
0
POLYLINE
8
Bottom
6
CONTINUOUS
66
1
70
0
40
0.0060000
41
0.0060000
0
VERTEX
8
Bottom
10
3.6923937
20
5.0520000
42
0.0000000
0
VERTEX
8
Bottom
10
3.6903937
20
5.0490000
42
0.0000000
0
SEQEND
0
INSERT
8
Bottom
2
UNIT_DISC
10
3.7103937
20
4.9520000
41
0.0060000
42
0.0060000
43
0.0060000
50
0.0000000
0
INSERT
8
Bottom
2
UNIT_DISC
10
3.7113937
20
4.9520000
41
0.0060000
42
0.0060000
43
0.0060000
50
0.0000000
0
POLYLINE
8
Bottom
6
CONTINUOUS
66
1
70
0
40
0.0060000
41
0.0060000
0
VERTEX
8
Bottom
10
3.7103937
20
4.9520000
42
0.0000000
0
VERTEX
8
Bottom
10
3.7113937
20
4.9520000
42
0.0000000
0
SEQEND
0
INSERT
8
Bottom
2
UNIT_DISC
10
3.6943937
20
5.0120000
41
0.0060000
42
0.0060000
43
0.0060000
50
0.0000000
0
INSERT
8
Bottom
2
UNIT_DISC
10
3.6943937
20
5.0110000
41
0.0060000
42
0.0060000
43
0.0060000
50
0.0000000
0
POLYLINE
8
Bottom
6
CONTINUOUS
66
1
70
0
40
0.0060000
41
0.0060000
0
VERTEX
8
Bottom
10
3.6943937
20
5.0120000
42
0.0000000
0
VERTEX
8
Bottom
10
3.6943937
20
5.0110000
42
0.0000000
0
SEQEND
0
INSERT
8
Bottom
2
UNIT_DISC
10
1.8500000
20
7.6731098
41
0.1500000
42
0.1500000
43
0.1500000
50
0.0000000
0
INSERT
8
Bottom
2
UNIT_DISC
10
1.8500000
20
7.0000000
41
0.1500000
42
0.1500000
43
0.1500000
50
0.0000000
0
POLYLINE
8
Bottom
6
CONTINUOUS
66
1
70
0
40
0.1500000
41
0.1500000
0
VERTEX
8
Bottom
10
1.8500000
20
7.6731098
42
0.0000000
0
VERTEX
8
Bottom
10
1.8500000
20
7.0000000
42
0.0000000
0
SEQEND
0
INSERT
8
Bottom
2
UNIT_DISC
10
2.5000000
20
5.8350000
41
0.0300000
42
0.0300000
43
0.0300000
50
0.0000000
0
INSERT
8
Bottom
2
UNIT_DISC
10
2.6050000
20
5.8350000
41
0.0300000
42
0.0300000
43
0.0300000
50
0.0000000
0
POLYLINE
8
Bottom
6
CONTINUOUS
66
1
70
0
40
0.0300000
41
0.0300000
0
VERTEX
8
Bottom
10
2.5000000
20
5.8350000
42
0.0000000
0
VERTEX
8
Bottom
10
2.6050000
20
5.8350000
42
0.0000000
0
SEQEND
0
INSERT
8
Bottom
2
UNIT_DISC
10
2.5000000
20
6.1650000
41
0.0300000
42
0.0300000
43
0.0300000
50
0.0000000
0
INSERT
8
Bottom
2
UNIT_DISC
10
2.6050000
20
6.1650000
41
0.0300000
42
0.0300000
43
0.0300000
50
0.0000000
0
POLYLINE
8
Bottom
6
CONTINUOUS
66
1
70
0
40
0.0300000
41
0.0300000
0
VERTEX
8
Bottom
10
2.5000000
20
6.1650000
42
0.0000000
0
VERTEX
8
Bottom
10
2.6050000
20
6.1650000
42
0.0000000
0
SEQEND
0
INSERT
8
Bottom
2
UNIT_DISC
10
3.1650000
20
7.5000000
41
0.0300000
42
0.0300000
43
0.0300000
50
0.0000000
0
INSERT
8
Bottom
2
UNIT_DISC
10
3.1650000
20
7.3950000
41
0.0300000
42
0.0300000
43
0.0300000
50
0.0000000
0
POLYLINE
8
Bottom
6
CONTINUOUS
66
1
70
0
40
0.0300000
41
0.0300000
0
VERTEX
8
Bottom
10
3.1650000
20
7.5000000
42
0.0000000
0
VERTEX
8
Bottom
10
3.1650000
20
7.3950000
42
0.0000000
0
SEQEND
0
INSERT
8
Bottom
2
UNIT_DISC
10
2.5000000
20
7.1750000
41
0.0300000
42
0.0300000
43
0.0300000
50
0.0000000
0
INSERT
8
Bottom
2
UNIT_DISC
10
2.6050000
20
7.1750000
41
0.0300000
42
0.0300000
43
0.0300000
50
0.0000000
0
POLYLINE
8
Bottom
6
CONTINUOUS
66
1
70
0
40
0.0300000
41
0.0300000
0
VERTEX
8
Bottom
10
2.5000000
20
7.1750000
42
0.0000000
0
VERTEX
8
Bottom
10
2.6050000
20
7.1750000
42
0.0000000
0
SEQEND
0
INSERT
8
Bottom
2
UNIT_DISC
10
2.5000000
20
6.8350000
41
0.0300000
42
0.0300000
43
0.0300000
50
0.0000000
0
INSERT
8
Bottom
2
UNIT_DISC
10
2.6050000
20
6.8350000
41
0.0300000
42
0.0300000
43
0.0300000
50
0.0000000
0
POLYLINE
8
Bottom
6
CONTINUOUS
66
1
70
0
40
0.0300000
41
0.0300000
0
VERTEX
8
Bottom
10
2.5000000
20
6.8350000
42
0.0000000
0
VERTEX
8
Bottom
10
2.6050000
20
6.8350000
42
0.0000000
0
SEQEND
0
INSERT
8
Bottom
2
UNIT_DISC
10
2.8250000
20
7.5000000
41
0.0300000
42
0.0300000
43
0.0300000
50
0.0000000
0
INSERT
8
Bottom
2
UNIT_DISC
10
2.8250000
20
7.3950000
41
0.0300000
42
0.0300000
43
0.0300000
50
0.0000000
0
POLYLINE
8
Bottom
6
CONTINUOUS
66
1
70
0
40
0.0300000
41
0.0300000
0
VERTEX
8
Bottom
10
2.8250000
20
7.5000000
42
0.0000000
0
VERTEX
8
Bottom
10
2.8250000
20
7.3950000
42
0.0000000
0
SEQEND
0
INSERT
8
Bottom
2
UNIT_DISC
10
2.5000000
20
4.1650000
41
0.0300000
42
0.0300000
43
0.0300000
50
0.0000000
0
INSERT
8
Bottom
2
UNIT_DISC
10
2.6050000
20
4.1650000
41
0.0300000
42
0.0300000
43
0.0300000
50
0.0000000
0
POLYLINE
8
Bottom
6
CONTINUOUS
66
1
70
0
40
0.0300000
41
0.0300000
0
VERTEX
8
Bottom
10
2.5000000
20
4.1650000
42
0.0000000
0
VERTEX
8
Bottom
10
2.6050000
20
4.1650000
42
0.0000000
0
SEQEND
0
INSERT
8
Bottom
2
UNIT_DISC
10
2.5000000
20
3.8350000
41
0.0300000
42
0.0300000
43
0.0300000
50
0.0000000
0
INSERT
8
Bottom
2
UNIT_DISC
10
2.6050000
20
3.8350000
41
0.0300000
42
0.0300000
43
0.0300000
50
0.0000000
0
POLYLINE
8
Bottom
6
CONTINUOUS
66
1
70
0
40
0.0300000
41
0.0300000
0
VERTEX
8
Bottom
10
2.5000000
20
3.8350000
42
0.0000000
0
VERTEX
8
Bottom
10
2.6050000
20
3.8350000
42
0.0000000
0
SEQEND
0
INSERT
8
Bottom
2
UNIT_DISC
10
2.5000000
20
4.8350000
41
0.0300000
42
0.0300000
43
0.0300000
50
0.0000000
0
INSERT
8
Bottom
2
UNIT_DISC
10
2.6050000
20
4.8350000
41
0.0300000
42
0.0300000
43
0.0300000
50
0.0000000
0
POLYLINE
8
Bottom
6
CONTINUOUS
66
1
70
0
40
0.0300000
41
0.0300000
0
VERTEX
8
Bottom
10
2.5000000
20
4.8350000
42
0.0000000
0
VERTEX
8
Bottom
10
2.6050000
20
4.8350000
42
0.0000000
0
SEQEND
0
INSERT
8
Bottom
2
UNIT_DISC
10
2.5000000
20
5.1650000
41
0.0300000
42
0.0300000
43
0.0300000
50
0.0000000
0
INSERT
8
Bottom
2
UNIT_DISC
10
2.6050000
20
5.1650000
41
0.0300000
42
0.0300000
43
0.0300000
50
0.0000000
0
POLYLINE
8
Bottom
6
CONTINUOUS
66
1
70
0
40
0.0300000
41
0.0300000
0
VERTEX
8
Bottom
10
2.5000000
20
5.1650000
42
0.0000000
0
VERTEX
8
Bottom
10
2.6050000
20
5.1650000
42
0.0000000
0
SEQEND
0
INSERT
8
Bottom
2
UNIT_DISC
10
2.0500000
20
5.0000000
41
0.1500000
42
0.1500000
43
0.1500000
50
0.0000000
0
INSERT
8
Bottom
2
UNIT_DISC
10
1.8500000
20
5.0000000
41
0.1500000
42
0.1500000
43
0.1500000
50
0.0000000
0
POLYLINE
8
Bottom
6
CONTINUOUS
66
1
70
0
40
0.1500000
41
0.1500000
0
VERTEX
8
Bottom
10
2.0500000
20
5.0000000
42
0.0000000
0
VERTEX
8
Bottom
10
1.8500000
20
5.0000000
42
0.0000000
0
SEQEND
0
INSERT
8
Bottom
2
UNIT_DISC
10
2.3094146
20
6.0491492
41
0.0600000
42
0.0600000
43
0.0600000
50
0.0000000
0
INSERT
8
Bottom
2
UNIT_DISC
10
2.3094146
20
5.9508508
41
0.0600000
42
0.0600000
43
0.0600000
50
0.0000000
0
POLYLINE
8
Bottom
6
CONTINUOUS
66
1
70
0
40
0.0600000
41
0.0600000
0
VERTEX
8
Bottom
10
2.3094146
20
6.0491492
42
1.9209821
0
VERTEX
8
Bottom
10
2.3094146
20
5.9508508
42
1.9209821
0
SEQEND
0
INSERT
8
Bottom
2
UNIT_DISC
10
2.3650000
20
6.0000000
41
0.0120000
42
0.0120000
43
0.0120000
50
0.0000000
0
INSERT
8
Bottom
2
UNIT_DISC
10
2.4500000
20
6.0000000
41
0.0120000
42
0.0120000
43
0.0120000
50
0.0000000
0
POLYLINE
8
Bottom
6
CONTINUOUS
66
1
70
0
40
0.0120000
41
0.0120000
0
VERTEX
8
Bottom
10
2.3650000
20
6.0000000
42
0.0000000
0
VERTEX
8
Bottom
10
2.4500000
20
6.0000000
42
0.0000000
0
SEQEND
0
INSERT
8
Bottom
2
UNIT_DISC
10
2.4160000
20
5.9500000
41
0.0250000
42
0.0250000
43
0.0250000
50
0.0000000
0
INSERT
8
Bottom
2
UNIT_DISC
10
2.3350000
20
5.9500000
41
0.0250000
42
0.0250000
43
0.0250000
50
0.0000000
0
POLYLINE
8
Bottom
6
CONTINUOUS
66
1
70
0
40
0.0250000
41
0.0250000
0
VERTEX
8
Bottom
10
2.4160000
20
5.9500000
42
0.0000000
0
VERTEX
8
Bottom
10
2.3350000
20
5.9500000
42
0.0000000
0
SEQEND
0
INSERT
8
Bottom
2
UNIT_DISC
10
2.4160000
20
5.9550000
41
0.0250000
42
0.0250000
43
0.0250000
50
0.0000000
0
INSERT
8
Bottom
2
UNIT_DISC
10
2.3110000
20
5.9690000
41
0.0250000
42
0.0250000
43
0.0250000
50
0.0000000
0
POLYLINE
8
Bottom
6
CONTINUOUS
66
1
70
0
40
0.0250000
41
0.0250000
0
VERTEX
8
Bottom
10
2.4160000
20
5.9550000
42
0.0000000
0
VERTEX
8
Bottom
10
2.3110000
20
5.9690000
42
0.0000000
0
SEQEND
0
INSERT
8
Bottom
2
UNIT_DISC
10
2.4160000
20
6.0500000
41
0.0250000
42
0.0250000
43
0.0250000
50
0.0000000
0
INSERT
8
Bottom
2
UNIT_DISC
10
2.3350000
20
6.0500000
41
0.0250000
42
0.0250000
43
0.0250000
50
0.0000000
0
POLYLINE
8
Bottom
6
CONTINUOUS
66
1
70
0
40
0.0250000
41
0.0250000
0
VERTEX
8
Bottom
10
2.4160000
20
6.0500000
42
0.0000000
0
VERTEX
8
Bottom
10
2.3350000
20
6.0500000
42
0.0000000
0
SEQEND
0
INSERT
8
Bottom
2
UNIT_DISC
10
2.4160000
20
6.0450000
41
0.0250000
42
0.0250000
43
0.0250000
50
0.0000000
0
INSERT
8
Bottom
2
UNIT_DISC
10
2.3140000
20
6.0320000
41
0.0250000
42
0.0250000
43
0.0250000
50
0.0000000
0
POLYLINE
8
Bottom
6
CONTINUOUS
66
1
70
0
40
0.0250000
41
0.0250000
0
VERTEX
8
Bottom
10
2.4160000
20
6.0450000
42
0.0000000
0
VERTEX
8
Bottom
10
2.3140000
20
6.0320000
42
0.0000000
0
SEQEND
0
TEXT
8
Bottom
10
6.0250000
20
5.8000000
40
0.1000000
1
1
50
0.0
7
STANDARD
71
2
72
0
0
INSERT
8
Bottom
2
UNIT_DISC
10
6.5446063
20
4.7340000
41
0.0060000
42
0.0060000
43
0.0060000
50
0.0000000
0
INSERT
8
Bottom
2
UNIT_DISC
10
6.5446063
20
4.7350000
41
0.0060000
42
0.0060000
43
0.0060000
50
0.0000000
0
POLYLINE
8
Bottom
6
CONTINUOUS
66
1
70
0
40
0.0060000
41
0.0060000
0
VERTEX
8
Bottom
10
6.5446063
20
4.7340000
42
0.0000000
0
VERTEX
8
Bottom
10
6.5446063
20
4.7350000
42
0.0000000
0
SEQEND
0
INSERT
8
Bottom
2
UNIT_DISC
10
6.8346063
20
5.1290000
41
0.0060000
42
0.0060000
43
0.0060000
50
0.0000000
0
INSERT
8
Bottom
2
UNIT_DISC
10
6.8346063
20
5.1300000
41
0.0060000
42
0.0060000
43
0.0060000
50
0.0000000
0
POLYLINE
8
Bottom
6
CONTINUOUS
66
1
70
0
40
0.0060000
41
0.0060000
0
VERTEX
8
Bottom
10
6.8346063
20
5.1290000
42
0.0000000
0
VERTEX
8
Bottom
10
6.8346063
20
5.1300000
42
0.0000000
0
SEQEND
0
INSERT
8
Bottom
2
UNIT_DISC
10
6.8346063
20
5.1290000
41
0.0060000
42
0.0060000
43
0.0060000
50
0.0000000
0
INSERT
8
Bottom
2
UNIT_DISC
10
6.8376063
20
5.1290000
41
0.0060000
42
0.0060000
43
0.0060000
50
0.0000000
0
POLYLINE
8
Bottom
6
CONTINUOUS
66
1
70
0
40
0.0060000
41
0.0060000
0
VERTEX
8
Bottom
10
6.8346063
20
5.1290000
42
0.0000000
0
VERTEX
8
Bottom
10
6.8376063
20
5.1290000
42
0.0000000
0
SEQEND
0
INSERT
8
Bottom
2
UNIT_DISC
10
6.4856063
20
5.2630000
41
0.0060000
42
0.0060000
43
0.0060000
50
0.0000000
0
INSERT
8
Bottom
2
UNIT_DISC
10
6.4846063
20
5.2600000
41
0.0060000
42
0.0060000
43
0.0060000
50
0.0000000
0
POLYLINE
8
Bottom
6
CONTINUOUS
66
1
70
0
40
0.0060000
41
0.0060000
0
VERTEX
8
Bottom
10
6.4856063
20
5.2630000
42
0.0000000
0
VERTEX
8
Bottom
10
6.4846063
20
5.2600000
42
0.0000000
0
SEQEND
0
INSERT
8
Bottom
2
UNIT_DISC
10
6.4456063
20
5.2590000
41
0.0060000
42
0.0060000
43
0.0060000
50
0.0000000
0
INSERT
8
Bottom
2
UNIT_DISC
10
6.4466063
20
5.2590000
41
0.0060000
42
0.0060000
43
0.0060000
50
0.0000000
0
POLYLINE
8
Bottom
6
CONTINUOUS
66
1
70
0
40
0.0060000
41
0.0060000
0
VERTEX
8
Bottom
10
6.4456063
20
5.2590000
42
0.0000000
0
VERTEX
8
Bottom
10
6.4466063
20
5.2590000
42
0.0000000
0
SEQEND
0
INSERT
8
Bottom
2
UNIT_DISC
10
6.4466063
20
5.2590000
41
0.0060000
42
0.0060000
43
0.0060000
50
0.0000000
0
INSERT
8
Bottom
2
UNIT_DISC
10
6.4456063
20
5.2590000
41
0.0060000
42
0.0060000
43
0.0060000
50
0.0000000
0
POLYLINE
8
Bottom
6
CONTINUOUS
66
1
70
0
40
0.0060000
41
0.0060000
0
VERTEX
8
Bottom
10
6.4466063
20
5.2590000
42
0.0000000
0
VERTEX
8
Bottom
10
6.4456063
20
5.2590000
42
0.0000000
0
SEQEND
0
INSERT
8
Bottom
2
UNIT_DISC
10
6.4456063
20
5.2590000
41
0.0060000
42
0.0060000
43
0.0060000
50
0.0000000
0
INSERT
8
Bottom
2
UNIT_DISC
10
6.4446063
20
5.2590000
41
0.0060000
42
0.0060000
43
0.0060000
50
0.0000000
0
POLYLINE
8
Bottom
6
CONTINUOUS
66
1
70
0
40
0.0060000
41
0.0060000
0
VERTEX
8
Bottom
10
6.4456063
20
5.2590000
42
0.0000000
0
VERTEX
8
Bottom
10
6.4446063
20
5.2590000
42
0.0000000
0
SEQEND
0
INSERT
8
Bottom
2
UNIT_DISC
10
6.4456063
20
5.2610000
41
0.0060000
42
0.0060000
43
0.0060000
50
0.0000000
0
INSERT
8
Bottom
2
UNIT_DISC
10
6.4456063
20
5.2590000
41
0.0060000
42
0.0060000
43
0.0060000
50
0.0000000
0
POLYLINE
8
Bottom
6
CONTINUOUS
66
1
70
0
40
0.0060000
41
0.0060000
0
VERTEX
8
Bottom
10
6.4456063
20
5.2610000
42
0.0000000
0
VERTEX
8
Bottom
10
6.4456063
20
5.2590000
42
0.0000000
0
SEQEND
0
INSERT
8
Bottom
2
UNIT_DISC
10
6.6826063
20
5.2600000
41
0.0060000
42
0.0060000
43
0.0060000
50
0.0000000
0
INSERT
8
Bottom
2
UNIT_DISC
10
6.6796063
20
5.2600000
41
0.0060000
42
0.0060000
43
0.0060000
50
0.0000000
0
POLYLINE
8
Bottom
6
CONTINUOUS
66
1
70
0
40
0.0060000
41
0.0060000
0
VERTEX
8
Bottom
10
6.6826063
20
5.2600000
42
0.0000000
0
VERTEX
8
Bottom
10
6.6796063
20
5.2600000
42
0.0000000
0
SEQEND
0
INSERT
8
Bottom
2
UNIT_DISC
10
6.6816063
20
5.2600000
41
0.0060000
42
0.0060000
43
0.0060000
50
0.0000000
0
INSERT
8
Bottom
2
UNIT_DISC
10
6.6826063
20
5.2600000
41
0.0060000
42
0.0060000
43
0.0060000
50
0.0000000
0
POLYLINE
8
Bottom
6
CONTINUOUS
66
1
70
0
40
0.0060000
41
0.0060000
0
VERTEX
8
Bottom
10
6.6816063
20
5.2600000
42
0.0000000
0
VERTEX
8
Bottom
10
6.6826063
20
5.2600000
42
0.0000000
0
SEQEND
0
INSERT
8
Bottom
2
UNIT_DISC
10
6.6816063
20
5.2620000
41
0.0060000
42
0.0060000
43
0.0060000
50
0.0000000
0
INSERT
8
Bottom
2
UNIT_DISC
10
6.6826063
20
5.2620000
41
0.0060000
42
0.0060000
43
0.0060000
50
0.0000000
0
POLYLINE
8
Bottom
6
CONTINUOUS
66
1
70
0
40
0.0060000
41
0.0060000
0
VERTEX
8
Bottom
10
6.6816063
20
5.2620000
42
0.0000000
0
VERTEX
8
Bottom
10
6.6826063
20
5.2620000
42
0.0000000
0
SEQEND
0
INSERT
8
Bottom
2
UNIT_DISC
10
6.6816063
20
5.2620000
41
0.0060000
42
0.0060000
43
0.0060000
50
0.0000000
0
INSERT
8
Bottom
2
UNIT_DISC
10
6.6826063
20
5.2620000
41
0.0060000
42
0.0060000
43
0.0060000
50
0.0000000
0
POLYLINE
8
Bottom
6
CONTINUOUS
66
1
70
0
40
0.0060000
41
0.0060000
0
VERTEX
8
Bottom
10
6.6816063
20
5.2620000
42
0.0000000
0
VERTEX
8
Bottom
10
6.6826063
20
5.2620000
42
0.0000000
0
SEQEND
0
INSERT
8
Bottom
2
UNIT_DISC
10
6.6816063
20
5.2600000
41
0.0060000
42
0.0060000
43
0.0060000
50
0.0000000
0
INSERT
8
Bottom
2
UNIT_DISC
10
6.6816063
20
5.2620000
41
0.0060000
42
0.0060000
43
0.0060000
50
0.0000000
0
POLYLINE
8
Bottom
6
CONTINUOUS
66
1
70
0
40
0.0060000
41
0.0060000
0
VERTEX
8
Bottom
10
6.6816063
20
5.2600000
42
0.0000000
0
VERTEX
8
Bottom
10
6.6816063
20
5.2620000
42
0.0000000
0
SEQEND
0
INSERT
8
Bottom
2
UNIT_DISC
10
6.6426063
20
5.2650000
41
0.0060000
42
0.0060000
43
0.0060000
50
0.0000000
0
INSERT
8
Bottom
2
UNIT_DISC
10
6.6446063
20
5.2650000
41
0.0060000
42
0.0060000
43
0.0060000
50
0.0000000
0
POLYLINE
8
Bottom
6
CONTINUOUS
66
1
70
0
40
0.0060000
41
0.0060000
0
VERTEX
8
Bottom
10
6.6426063
20
5.2650000
42
0.0000000
0
VERTEX
8
Bottom
10
6.6446063
20
5.2650000
42
0.0000000
0
SEQEND
0
INSERT
8
Bottom
2
UNIT_DISC
10
6.6036063
20
5.2650000
41
0.0060000
42
0.0060000
43
0.0060000
50
0.0000000
0
INSERT
8
Bottom
2
UNIT_DISC
10
6.6046063
20
5.2650000
41
0.0060000
42
0.0060000
43
0.0060000
50
0.0000000
0
POLYLINE
8
Bottom
6
CONTINUOUS
66
1
70
0
40
0.0060000
41
0.0060000
0
VERTEX
8
Bottom
10
6.6036063
20
5.2650000
42
0.0000000
0
VERTEX
8
Bottom
10
6.6046063
20
5.2650000
42
0.0000000
0
SEQEND
0
INSERT
8
Bottom
2
UNIT_DISC
10
6.5036063
20
5.2800000
41
0.0060000
42
0.0060000
43
0.0060000
50
0.0000000
0
INSERT
8
Bottom
2
UNIT_DISC
10
6.4996063
20
5.2800000
41
0.0060000
42
0.0060000
43
0.0060000
50
0.0000000
0
POLYLINE
8
Bottom
6
CONTINUOUS
66
1
70
0
40
0.0060000
41
0.0060000
0
VERTEX
8
Bottom
10
6.5036063
20
5.2800000
42
0.0000000
0
VERTEX
8
Bottom
10
6.4996063
20
5.2800000
42
0.0000000
0
SEQEND
0
INSERT
8
Bottom
2
UNIT_DISC
10
6.5046063
20
5.2800000
41
0.0060000
42
0.0060000
43
0.0060000
50
0.0000000
0
INSERT
8
Bottom
2
UNIT_DISC
10
6.5036063
20
5.2800000
41
0.0060000
42
0.0060000
43
0.0060000
50
0.0000000
0
POLYLINE
8
Bottom
6
CONTINUOUS
66
1
70
0
40
0.0060000
41
0.0060000
0
VERTEX
8
Bottom
10
6.5046063
20
5.2800000
42
0.0000000
0
VERTEX
8
Bottom
10
6.5036063
20
5.2800000
42
0.0000000
0
SEQEND
0
INSERT
8
Bottom
2
UNIT_DISC
10
6.5046063
20
5.2800000
41
0.0060000
42
0.0060000
43
0.0060000
50
0.0000000
0
INSERT
8
Bottom
2
UNIT_DISC
10
6.5046063
20
5.2810000
41
0.0060000
42
0.0060000
43
0.0060000
50
0.0000000
0
POLYLINE
8
Bottom
6
CONTINUOUS
66
1
70
0
40
0.0060000
41
0.0060000
0
VERTEX
8
Bottom
10
6.5046063
20
5.2800000
42
0.0000000
0
VERTEX
8
Bottom
10
6.5046063
20
5.2810000
42
0.0000000
0
SEQEND
0
INSERT
8
Bottom
2
UNIT_DISC
10
6.5236063
20
5.2650000
41
0.0060000
42
0.0060000
43
0.0060000
50
0.0000000
0
INSERT
8
Bottom
2
UNIT_DISC
10
6.5246063
20
5.2650000
41
0.0060000
42
0.0060000
43
0.0060000
50
0.0000000
0
POLYLINE
8
Bottom
6
CONTINUOUS
66
1
70
0
40
0.0060000
41
0.0060000
0
VERTEX
8
Bottom
10
6.5236063
20
5.2650000
42
0.0000000
0
VERTEX
8
Bottom
10
6.5246063
20
5.2650000
42
0.0000000
0
SEQEND
0
INSERT
8
Bottom
2
UNIT_DISC
10
6.3096063
20
5.0690000
41
0.0060000
42
0.0060000
43
0.0060000
50
0.0000000
0
INSERT
8
Bottom
2
UNIT_DISC
10
6.3096063
20
5.0700000
41
0.0060000
42
0.0060000
43
0.0060000
50
0.0000000
0
POLYLINE
8
Bottom
6
CONTINUOUS
66
1
70
0
40
0.0060000
41
0.0060000
0
VERTEX
8
Bottom
10
6.3096063
20
5.0690000
42
0.0000000
0
VERTEX
8
Bottom
10
6.3096063
20
5.0700000
42
0.0000000
0
SEQEND
0
INSERT
8
Bottom
2
UNIT_DISC
10
6.3096063
20
5.1080000
41
0.0060000
42
0.0060000
43
0.0060000
50
0.0000000
0
INSERT
8
Bottom
2
UNIT_DISC
10
6.3096063
20
5.1050000
41
0.0060000
42
0.0060000
43
0.0060000
50
0.0000000
0
POLYLINE
8
Bottom
6
CONTINUOUS
66
1
70
0
40
0.0060000
41
0.0060000
0
VERTEX
8
Bottom
10
6.3096063
20
5.1080000
42
0.0000000
0
VERTEX
8
Bottom
10
6.3096063
20
5.1050000
42
0.0000000
0
SEQEND
0
INSERT
8
Bottom
2
UNIT_DISC
10
6.4666063
20
4.7390000
41
0.0060000
42
0.0060000
43
0.0060000
50
0.0000000
0
INSERT
8
Bottom
2
UNIT_DISC
10
6.4646063
20
4.7400000
41
0.0060000
42
0.0060000
43
0.0060000
50
0.0000000
0
POLYLINE
8
Bottom
6
CONTINUOUS
66
1
70
0
40
0.0060000
41
0.0060000
0
VERTEX
8
Bottom
10
6.4666063
20
4.7390000
42
0.0000000
0
VERTEX
8
Bottom
10
6.4646063
20
4.7400000
42
0.0000000
0
SEQEND
0
INSERT
8
Bottom
2
UNIT_DISC
10
6.4666063
20
4.7390000
41
0.0060000
42
0.0060000
43
0.0060000
50
0.0000000
0
INSERT
8
Bottom
2
UNIT_DISC
10
6.4666063
20
4.7360000
41
0.0060000
42
0.0060000
43
0.0060000
50
0.0000000
0
POLYLINE
8
Bottom
6
CONTINUOUS
66
1
70
0
40
0.0060000
41
0.0060000
0
VERTEX
8
Bottom
10
6.4666063
20
4.7390000
42
0.0000000
0
VERTEX
8
Bottom
10
6.4666063
20
4.7360000
42
0.0000000
0
SEQEND
0
INSERT
8
Bottom
2
UNIT_DISC
10
6.5066063
20
4.7300000
41
0.0060000
42
0.0060000
43
0.0060000
50
0.0000000
0
INSERT
8
Bottom
2
UNIT_DISC
10
6.5046063
20
4.7300000
41
0.0060000
42
0.0060000
43
0.0060000
50
0.0000000
0
POLYLINE
8
Bottom
6
CONTINUOUS
66
1
70
0
40
0.0060000
41
0.0060000
0
VERTEX
8
Bottom
10
6.5066063
20
4.7300000
42
0.0000000
0
VERTEX
8
Bottom
10
6.5046063
20
4.7300000
42
0.0000000
0
SEQEND
0
INSERT
8
Bottom
2
UNIT_DISC
10
6.6046063
20
4.7190000
41
0.0060000
42
0.0060000
43
0.0060000
50
0.0000000
0
INSERT
8
Bottom
2
UNIT_DISC
10
6.6036063
20
4.7190000
41
0.0060000
42
0.0060000
43
0.0060000
50
0.0000000
0
POLYLINE
8
Bottom
6
CONTINUOUS
66
1
70
0
40
0.0060000
41
0.0060000
0
VERTEX
8
Bottom
10
6.6046063
20
4.7190000
42
0.0000000
0
VERTEX
8
Bottom
10
6.6036063
20
4.7190000
42
0.0000000
0
SEQEND
0
INSERT
8
Bottom
2
UNIT_DISC
10
6.6046063
20
4.7170000
41
0.0060000
42
0.0060000
43
0.0060000
50
0.0000000
0
INSERT
8
Bottom
2
UNIT_DISC
10
6.6046063
20
4.7190000
41
0.0060000
42
0.0060000
43
0.0060000
50
0.0000000
0
POLYLINE
8
Bottom
6
CONTINUOUS
66
1
70
0
40
0.0060000
41
0.0060000
0
VERTEX
8
Bottom
10
6.6046063
20
4.7170000
42
0.0000000
0
VERTEX
8
Bottom
10
6.6046063
20
4.7190000
42
0.0000000
0
SEQEND
0
INSERT
8
Bottom
2
UNIT_DISC
10
6.7036063
20
4.7400000
41
0.0060000
42
0.0060000
43
0.0060000
50
0.0000000
0
INSERT
8
Bottom
2
UNIT_DISC
10
6.7046063
20
4.7400000
41
0.0060000
42
0.0060000
43
0.0060000
50
0.0000000
0
POLYLINE
8
Bottom
6
CONTINUOUS
66
1
70
0
40
0.0060000
41
0.0060000
0
VERTEX
8
Bottom
10
6.7036063
20
4.7400000
42
0.0000000
0
VERTEX
8
Bottom
10
6.7046063
20
4.7400000
42
0.0000000
0
SEQEND
0
INSERT
8
Bottom
2
UNIT_DISC
10
6.7036063
20
4.7360000
41
0.0060000
42
0.0060000
43
0.0060000
50
0.0000000
0
INSERT
8
Bottom
2
UNIT_DISC
10
6.7036063
20
4.7400000
41
0.0060000
42
0.0060000
43
0.0060000
50
0.0000000
0
POLYLINE
8
Bottom
6
CONTINUOUS
66
1
70
0
40
0.0060000
41
0.0060000
0
VERTEX
8
Bottom
10
6.7036063
20
4.7360000
42
0.0000000
0
VERTEX
8
Bottom
10
6.7036063
20
4.7400000
42
0.0000000
0
SEQEND
0
INSERT
8
Bottom
2
UNIT_DISC
10
6.8386063
20
4.8920000
41
0.0060000
42
0.0060000
43
0.0060000
50
0.0000000
0
INSERT
8
Bottom
2
UNIT_DISC
10
6.8396063
20
4.8900000
41
0.0060000
42
0.0060000
43
0.0060000
50
0.0000000
0
POLYLINE
8
Bottom
6
CONTINUOUS
66
1
70
0
40
0.0060000
41
0.0060000
0
VERTEX
8
Bottom
10
6.8386063
20
4.8920000
42
0.0000000
0
VERTEX
8
Bottom
10
6.8396063
20
4.8900000
42
0.0000000
0
SEQEND
0
INSERT
8
Bottom
2
UNIT_DISC
10
6.8396063
20
4.9310000
41
0.0060000
42
0.0060000
43
0.0060000
50
0.0000000
0
INSERT
8
Bottom
2
UNIT_DISC
10
6.8396063
20
4.9300000
41
0.0060000
42
0.0060000
43
0.0060000
50
0.0000000
0
POLYLINE
8
Bottom
6
CONTINUOUS
66
1
70
0
40
0.0060000
41
0.0060000
0
VERTEX
8
Bottom
10
6.8396063
20
4.9310000
42
0.0000000
0
VERTEX
8
Bottom
10
6.8396063
20
4.9300000
42
0.0000000
0
SEQEND
0
INSERT
8
Bottom
2
UNIT_DISC
10
6.8396063
20
4.9710000
41
0.0060000
42
0.0060000
43
0.0060000
50
0.0000000
0
INSERT
8
Bottom
2
UNIT_DISC
10
6.8396063
20
4.9700000
41
0.0060000
42
0.0060000
43
0.0060000
50
0.0000000
0
POLYLINE
8
Bottom
6
CONTINUOUS
66
1
70
0
40
0.0060000
41
0.0060000
0
VERTEX
8
Bottom
10
6.8396063
20
4.9710000
42
0.0000000
0
VERTEX
8
Bottom
10
6.8396063
20
4.9700000
42
0.0000000
0
SEQEND
0
INSERT
8
Bottom
2
UNIT_DISC
10
4.8350000
20
7.5000000
41
0.0300000
42
0.0300000
43
0.0300000
50
0.0000000
0
INSERT
8
Bottom
2
UNIT_DISC
10
4.8350000
20
7.3950000
41
0.0300000
42
0.0300000
43
0.0300000
50
0.0000000
0
POLYLINE
8
Bottom
6
CONTINUOUS
66
1
70
0
40
0.0300000
41
0.0300000
0
VERTEX
8
Bottom
10
4.8350000
20
7.5000000
42
0.0000000
0
VERTEX
8
Bottom
10
4.8350000
20
7.3950000
42
0.0000000
0
SEQEND
0
INSERT
8
Bottom
2
UNIT_DISC
10
5.1650000
20
7.5000000
41
0.0300000
42
0.0300000
43
0.0300000
50
0.0000000
0
INSERT
8
Bottom
2
UNIT_DISC
10
5.1650000
20
7.3950000
41
0.0300000
42
0.0300000
43
0.0300000
50
0.0000000
0
POLYLINE
8
Bottom
6
CONTINUOUS
66
1
70
0
40
0.0300000
41
0.0300000
0
VERTEX
8
Bottom
10
5.1650000
20
7.5000000
42
0.0000000
0
VERTEX
8
Bottom
10
5.1650000
20
7.3950000
42
0.0000000
0
SEQEND
0
INSERT
8
Bottom
2
UNIT_DISC
10
4.1650000
20
7.5000000
41
0.0300000
42
0.0300000
43
0.0300000
50
0.0000000
0
INSERT
8
Bottom
2
UNIT_DISC
10
4.1650000
20
7.3950000
41
0.0300000
42
0.0300000
43
0.0300000
50
0.0000000
0
POLYLINE
8
Bottom
6
CONTINUOUS
66
1
70
0
40
0.0300000
41
0.0300000
0
VERTEX
8
Bottom
10
4.1650000
20
7.5000000
42
0.0000000
0
VERTEX
8
Bottom
10
4.1650000
20
7.3950000
42
0.0000000
0
SEQEND
0
INSERT
8
Bottom
2
UNIT_DISC
10
3.8350000
20
7.5000000
41
0.0300000
42
0.0300000
43
0.0300000
50
0.0000000
0
INSERT
8
Bottom
2
UNIT_DISC
10
3.8350000
20
7.3950000
41
0.0300000
42
0.0300000
43
0.0300000
50
0.0000000
0
POLYLINE
8
Bottom
6
CONTINUOUS
66
1
70
0
40
0.0300000
41
0.0300000
0
VERTEX
8
Bottom
10
3.8350000
20
7.5000000
42
0.0000000
0
VERTEX
8
Bottom
10
3.8350000
20
7.3950000
42
0.0000000
0
SEQEND
0
INSERT
8
Bottom
2
UNIT_DISC
10
6.8350000
20
7.5000000
41
0.0300000
42
0.0300000
43
0.0300000
50
0.0000000
0
INSERT
8
Bottom
2
UNIT_DISC
10
6.8350000
20
7.3950000
41
0.0300000
42
0.0300000
43
0.0300000
50
0.0000000
0
POLYLINE
8
Bottom
6
CONTINUOUS
66
1
70
0
40
0.0300000
41
0.0300000
0
VERTEX
8
Bottom
10
6.8350000
20
7.5000000
42
0.0000000
0
VERTEX
8
Bottom
10
6.8350000
20
7.3950000
42
0.0000000
0
SEQEND
0
INSERT
8
Bottom
2
UNIT_DISC
10
7.1750000
20
7.5000000
41
0.0300000
42
0.0300000
43
0.0300000
50
0.0000000
0
INSERT
8
Bottom
2
UNIT_DISC
10
7.1750000
20
7.3950000
41
0.0300000
42
0.0300000
43
0.0300000
50
0.0000000
0
POLYLINE
8
Bottom
6
CONTINUOUS
66
1
70
0
40
0.0300000
41
0.0300000
0
VERTEX
8
Bottom
10
7.1750000
20
7.5000000
42
0.0000000
0
VERTEX
8
Bottom
10
7.1750000
20
7.3950000
42
0.0000000
0
SEQEND
0
INSERT
8
Bottom
2
UNIT_DISC
10
7.5000000
20
6.8350000
41
0.0300000
42
0.0300000
43
0.0300000
50
0.0000000
0
INSERT
8
Bottom
2
UNIT_DISC
10
7.3950000
20
6.8350000
41
0.0300000
42
0.0300000
43
0.0300000
50
0.0000000
0
POLYLINE
8
Bottom
6
CONTINUOUS
66
1
70
0
40
0.0300000
41
0.0300000
0
VERTEX
8
Bottom
10
7.5000000
20
6.8350000
42
0.0000000
0
VERTEX
8
Bottom
10
7.3950000
20
6.8350000
42
0.0000000
0
SEQEND
0
INSERT
8
Bottom
2
UNIT_DISC
10
6.1650000
20
7.5000000
41
0.0300000
42
0.0300000
43
0.0300000
50
0.0000000
0
INSERT
8
Bottom
2
UNIT_DISC
10
6.1650000
20
7.3950000
41
0.0300000
42
0.0300000
43
0.0300000
50
0.0000000
0
POLYLINE
8
Bottom
6
CONTINUOUS
66
1
70
0
40
0.0300000
41
0.0300000
0
VERTEX
8
Bottom
10
6.1650000
20
7.5000000
42
0.0000000
0
VERTEX
8
Bottom
10
6.1650000
20
7.3950000
42
0.0000000
0
SEQEND
0
INSERT
8
Bottom
2
UNIT_DISC
10
5.8350000
20
7.5000000
41
0.0300000
42
0.0300000
43
0.0300000
50
0.0000000
0
INSERT
8
Bottom
2
UNIT_DISC
10
5.8350000
20
7.3950000
41
0.0300000
42
0.0300000
43
0.0300000
50
0.0000000
0
POLYLINE
8
Bottom
6
CONTINUOUS
66
1
70
0
40
0.0300000
41
0.0300000
0
VERTEX
8
Bottom
10
5.8350000
20
7.5000000
42
0.0000000
0
VERTEX
8
Bottom
10
5.8350000
20
7.3950000
42
0.0000000
0
SEQEND
0
INSERT
8
Bottom
2
UNIT_DISC
10
7.5000000
20
5.8350000
41
0.0300000
42
0.0300000
43
0.0300000
50
0.0000000
0
INSERT
8
Bottom
2
UNIT_DISC
10
7.3950000
20
5.8350000
41
0.0300000
42
0.0300000
43
0.0300000
50
0.0000000
0
POLYLINE
8
Bottom
6
CONTINUOUS
66
1
70
0
40
0.0300000
41
0.0300000
0
VERTEX
8
Bottom
10
7.5000000
20
5.8350000
42
0.0000000
0
VERTEX
8
Bottom
10
7.3950000
20
5.8350000
42
0.0000000
0
SEQEND
0
INSERT
8
Bottom
2
UNIT_DISC
10
7.5000000
20
6.1650000
41
0.0300000
42
0.0300000
43
0.0300000
50
0.0000000
0
INSERT
8
Bottom
2
UNIT_DISC
10
7.3950000
20
6.1650000
41
0.0300000
42
0.0300000
43
0.0300000
50
0.0000000
0
POLYLINE
8
Bottom
6
CONTINUOUS
66
1
70
0
40
0.0300000
41
0.0300000
0
VERTEX
8
Bottom
10
7.5000000
20
6.1650000
42
0.0000000
0
VERTEX
8
Bottom
10
7.3950000
20
6.1650000
42
0.0000000
0
SEQEND
0
INSERT
8
Bottom
2
UNIT_DISC
10
7.5000000
20
4.1650000
41
0.0300000
42
0.0300000
43
0.0300000
50
0.0000000
0
INSERT
8
Bottom
2
UNIT_DISC
10
7.3950000
20
4.1650000
41
0.0300000
42
0.0300000
43
0.0300000
50
0.0000000
0
POLYLINE
8
Bottom
6
CONTINUOUS
66
1
70
0
40
0.0300000
41
0.0300000
0
VERTEX
8
Bottom
10
7.5000000
20
4.1650000
42
0.0000000
0
VERTEX
8
Bottom
10
7.3950000
20
4.1650000
42
0.0000000
0
SEQEND
0
INSERT
8
Bottom
2
UNIT_DISC
10
7.5000000
20
3.8350000
41
0.0300000
42
0.0300000
43
0.0300000
50
0.0000000
0
INSERT
8
Bottom
2
UNIT_DISC
10
7.3950000
20
3.8350000
41
0.0300000
42
0.0300000
43
0.0300000
50
0.0000000
0
POLYLINE
8
Bottom
6
CONTINUOUS
66
1
70
0
40
0.0300000
41
0.0300000
0
VERTEX
8
Bottom
10
7.5000000
20
3.8350000
42
0.0000000
0
VERTEX
8
Bottom
10
7.3950000
20
3.8350000
42
0.0000000
0
SEQEND
0
INSERT
8
Bottom
2
UNIT_DISC
10
7.5000000
20
5.1650000
41
0.0300000
42
0.0300000
43
0.0300000
50
0.0000000
0
INSERT
8
Bottom
2
UNIT_DISC
10
7.3950000
20
5.1650000
41
0.0300000
42
0.0300000
43
0.0300000
50
0.0000000
0
POLYLINE
8
Bottom
6
CONTINUOUS
66
1
70
0
40
0.0300000
41
0.0300000
0
VERTEX
8
Bottom
10
7.5000000
20
5.1650000
42
0.0000000
0
VERTEX
8
Bottom
10
7.3950000
20
5.1650000
42
0.0000000
0
SEQEND
0
INSERT
8
Bottom
2
UNIT_DISC
10
7.5000000
20
4.8350000
41
0.0300000
42
0.0300000
43
0.0300000
50
0.0000000
0
INSERT
8
Bottom
2
UNIT_DISC
10
7.3950000
20
4.8350000
41
0.0300000
42
0.0300000
43
0.0300000
50
0.0000000
0
POLYLINE
8
Bottom
6
CONTINUOUS
66
1
70
0
40
0.0300000
41
0.0300000
0
VERTEX
8
Bottom
10
7.5000000
20
4.8350000
42
0.0000000
0
VERTEX
8
Bottom
10
7.3950000
20
4.8350000
42
0.0000000
0
SEQEND
0
INSERT
8
Bottom
2
UNIT_DISC
10
7.5000000
20
7.1750000
41
0.0300000
42
0.0300000
43
0.0300000
50
0.0000000
0
INSERT
8
Bottom
2
UNIT_DISC
10
7.3950000
20
7.1750000
41
0.0300000
42
0.0300000
43
0.0300000
50
0.0000000
0
POLYLINE
8
Bottom
6
CONTINUOUS
66
1
70
0
40
0.0300000
41
0.0300000
0
VERTEX
8
Bottom
10
7.5000000
20
7.1750000
42
0.0000000
0
VERTEX
8
Bottom
10
7.3950000
20
7.1750000
42
0.0000000
0
SEQEND
0
INSERT
8
Bottom
2
UNIT_DISC
10
4.8350000
20
2.6050000
41
0.0300000
42
0.0300000
43
0.0300000
50
0.0000000
0
INSERT
8
Bottom
2
UNIT_DISC
10
4.8350000
20
2.5000000
41
0.0300000
42
0.0300000
43
0.0300000
50
0.0000000
0
POLYLINE
8
Bottom
6
CONTINUOUS
66
1
70
0
40
0.0300000
41
0.0300000
0
VERTEX
8
Bottom
10
4.8350000
20
2.6050000
42
0.0000000
0
VERTEX
8
Bottom
10
4.8350000
20
2.5000000
42
0.0000000
0
SEQEND
0
INSERT
8
Bottom
2
UNIT_DISC
10
5.1650000
20
2.6050000
41
0.0300000
42
0.0300000
43
0.0300000
50
0.0000000
0
INSERT
8
Bottom
2
UNIT_DISC
10
5.1650000
20
2.5000000
41
0.0300000
42
0.0300000
43
0.0300000
50
0.0000000
0
POLYLINE
8
Bottom
6
CONTINUOUS
66
1
70
0
40
0.0300000
41
0.0300000
0
VERTEX
8
Bottom
10
5.1650000
20
2.6050000
42
0.0000000
0
VERTEX
8
Bottom
10
5.1650000
20
2.5000000
42
0.0000000
0
SEQEND
0
INSERT
8
Bottom
2
UNIT_DISC
10
7.0000000
20
1.8500000
41
0.1500000
42
0.1500000
43
0.1500000
50
0.0000000
0
INSERT
8
Bottom
2
UNIT_DISC
10
6.0000000
20
1.8500000
41
0.1500000
42
0.1500000
43
0.1500000
50
0.0000000
0
POLYLINE
8
Bottom
6
CONTINUOUS
66
1
70
0
40
0.1500000
41
0.1500000
0
VERTEX
8
Bottom
10
7.0000000
20
1.8500000
42
0.0000000
0
VERTEX
8
Bottom
10
6.0000000
20
1.8500000
42
0.0000000
0
SEQEND
0
INSERT
8
Bottom
2
UNIT_DISC
10
6.8350000
20
2.6050000
41
0.0300000
42
0.0300000
43
0.0300000
50
0.0000000
0
INSERT
8
Bottom
2
UNIT_DISC
10
6.8350000
20
2.5000000
41
0.0300000
42
0.0300000
43
0.0300000
50
0.0000000
0
POLYLINE
8
Bottom
6
CONTINUOUS
66
1
70
0
40
0.0300000
41
0.0300000
0
VERTEX
8
Bottom
10
6.8350000
20
2.6050000
42
0.0000000
0
VERTEX
8
Bottom
10
6.8350000
20
2.5000000
42
0.0000000
0
SEQEND
0
INSERT
8
Bottom
2
UNIT_DISC
10
7.1750000
20
2.6050000
41
0.0300000
42
0.0300000
43
0.0300000
50
0.0000000
0
INSERT
8
Bottom
2
UNIT_DISC
10
7.1750000
20
2.5000000
41
0.0300000
42
0.0300000
43
0.0300000
50
0.0000000
0
POLYLINE
8
Bottom
6
CONTINUOUS
66
1
70
0
40
0.0300000
41
0.0300000
0
VERTEX
8
Bottom
10
7.1750000
20
2.6050000
42
0.0000000
0
VERTEX
8
Bottom
10
7.1750000
20
2.5000000
42
0.0000000
0
SEQEND
0
INSERT
8
Bottom
2
UNIT_DISC
10
7.5000000
20
3.1650000
41
0.0300000
42
0.0300000
43
0.0300000
50
0.0000000
0
INSERT
8
Bottom
2
UNIT_DISC
10
7.3950000
20
3.1650000
41
0.0300000
42
0.0300000
43
0.0300000
50
0.0000000
0
POLYLINE
8
Bottom
6
CONTINUOUS
66
1
70
0
40
0.0300000
41
0.0300000
0
VERTEX
8
Bottom
10
7.5000000
20
3.1650000
42
0.0000000
0
VERTEX
8
Bottom
10
7.3950000
20
3.1650000
42
0.0000000
0
SEQEND
0
INSERT
8
Bottom
2
UNIT_DISC
10
7.5000000
20
2.8250000
41
0.0300000
42
0.0300000
43
0.0300000
50
0.0000000
0
INSERT
8
Bottom
2
UNIT_DISC
10
7.3950000
20
2.8250000
41
0.0300000
42
0.0300000
43
0.0300000
50
0.0000000
0
POLYLINE
8
Bottom
6
CONTINUOUS
66
1
70
0
40
0.0300000
41
0.0300000
0
VERTEX
8
Bottom
10
7.5000000
20
2.8250000
42
0.0000000
0
VERTEX
8
Bottom
10
7.3950000
20
2.8250000
42
0.0000000
0
SEQEND
0
INSERT
8
Bottom
2
UNIT_DISC
10
3.8350000
20
2.5000000
41
0.0300000
42
0.0300000
43
0.0300000
50
0.0000000
0
INSERT
8
Bottom
2
UNIT_DISC
10
3.8350000
20
2.6050000
41
0.0300000
42
0.0300000
43
0.0300000
50
0.0000000
0
POLYLINE
8
Bottom
6
CONTINUOUS
66
1
70
0
40
0.0300000
41
0.0300000
0
VERTEX
8
Bottom
10
3.8350000
20
2.5000000
42
0.0000000
0
VERTEX
8
Bottom
10
3.8350000
20
2.6050000
42
0.0000000
0
SEQEND
0
INSERT
8
Bottom
2
UNIT_DISC
10
4.1650000
20
2.5000000
41
0.0300000
42
0.0300000
43
0.0300000
50
0.0000000
0
INSERT
8
Bottom
2
UNIT_DISC
10
4.1650000
20
2.6050000
41
0.0300000
42
0.0300000
43
0.0300000
50
0.0000000
0
POLYLINE
8
Bottom
6
CONTINUOUS
66
1
70
0
40
0.0300000
41
0.0300000
0
VERTEX
8
Bottom
10
4.1650000
20
2.5000000
42
0.0000000
0
VERTEX
8
Bottom
10
4.1650000
20
2.6050000
42
0.0000000
0
SEQEND
0
INSERT
8
Bottom
2
UNIT_DISC
10
5.8350000
20
2.5000000
41
0.0300000
42
0.0300000
43
0.0300000
50
0.0000000
0
INSERT
8
Bottom
2
UNIT_DISC
10
5.8350000
20
2.6050000
41
0.0300000
42
0.0300000
43
0.0300000
50
0.0000000
0
POLYLINE
8
Bottom
6
CONTINUOUS
66
1
70
0
40
0.0300000
41
0.0300000
0
VERTEX
8
Bottom
10
5.8350000
20
2.5000000
42
0.0000000
0
VERTEX
8
Bottom
10
5.8350000
20
2.6050000
42
0.0000000
0
SEQEND
0
INSERT
8
Bottom
2
UNIT_DISC
10
6.1650000
20
2.5000000
41
0.0300000
42
0.0300000
43
0.0300000
50
0.0000000
0
INSERT
8
Bottom
2
UNIT_DISC
10
6.1650000
20
2.6050000
41
0.0300000
42
0.0300000
43
0.0300000
50
0.0000000
0
POLYLINE
8
Bottom
6
CONTINUOUS
66
1
70
0
40
0.0300000
41
0.0300000
0
VERTEX
8
Bottom
10
6.1650000
20
2.5000000
42
0.0000000
0
VERTEX
8
Bottom
10
6.1650000
20
2.6050000
42
0.0000000
0
SEQEND
0
INSERT
8
Bottom
2
UNIT_DISC
10
5.0000000
20
1.8500000
41
0.1500000
42
0.1500000
43
0.1500000
50
0.0000000
0
INSERT
8
Bottom
2
UNIT_DISC
10
7.0000000
20
1.8500000
41
0.1500000
42
0.1500000
43
0.1500000
50
0.0000000
0
POLYLINE
8
Bottom
6
CONTINUOUS
66
1
70
0
40
0.1500000
41
0.1500000
0
VERTEX
8
Bottom
10
5.0000000
20
1.8500000
42
0.0000000
0
VERTEX
8
Bottom
10
7.0000000
20
1.8500000
42
0.0000000
0
SEQEND
0
INSERT
8
Bottom
2
UNIT_DISC
10
7.9000000
20
1.8500000
41
0.1500000
42
0.1500000
43
0.1500000
50
0.0000000
0
INSERT
8
Bottom
2
UNIT_DISC
10
7.4000000
20
1.8500000
41
0.1500000
42
0.1500000
43
0.1500000
50
0.0000000
0
POLYLINE
8
Bottom
6
CONTINUOUS
66
1
70
0
40
0.1500000
41
0.1500000
0
VERTEX
8
Bottom
10
7.9000000
20
1.8500000
42
0.0000000
0
VERTEX
8
Bottom
10
7.4000000
20
1.8500000
42
0.0000000
0
SEQEND
0
INSERT
8
Bottom
2
UNIT_DISC
10
7.4000000
20
1.8500000
41
0.1500000
42
0.1500000
43
0.1500000
50
0.0000000
0
INSERT
8
Bottom
2
UNIT_DISC
10
7.0000000
20
1.8500000
41
0.1500000
42
0.1500000
43
0.1500000
50
0.0000000
0
POLYLINE
8
Bottom
6
CONTINUOUS
66
1
70
0
40
0.1500000
41
0.1500000
0
VERTEX
8
Bottom
10
7.4000000
20
1.8500000
42
0.0000000
0
VERTEX
8
Bottom
10
7.0000000
20
1.8500000
42
0.0000000
0
SEQEND
0
INSERT
8
Bottom
2
UNIT_DISC
10
7.0000000
20
1.8500000
41
0.1500000
42
0.1500000
43
0.1500000
50
0.0000000
0
INSERT
8
Bottom
2
UNIT_DISC
10
7.4000000
20
1.8500000
41
0.1500000
42
0.1500000
43
0.1500000
50
0.0000000
0
POLYLINE
8
Bottom
6
CONTINUOUS
66
1
70
0
40
0.1500000
41
0.1500000
0
VERTEX
8
Bottom
10
7.0000000
20
1.8500000
42
0.0000000
0
VERTEX
8
Bottom
10
7.4000000
20
1.8500000
42
0.0000000
0
SEQEND
0
INSERT
8
Bottom
2
UNIT_DISC
10
7.4000000
20
1.8500000
41
0.1500000
42
0.1500000
43
0.1500000
50
0.0000000
0
INSERT
8
Bottom
2
UNIT_DISC
10
7.9000000
20
1.8500000
41
0.1500000
42
0.1500000
43
0.1500000
50
0.0000000
0
POLYLINE
8
Bottom
6
CONTINUOUS
66
1
70
0
40
0.1500000
41
0.1500000
0
VERTEX
8
Bottom
10
7.4000000
20
1.8500000
42
0.0000000
0
VERTEX
8
Bottom
10
7.9000000
20
1.8500000
42
0.0000000
0
SEQEND
0
INSERT
8
Bottom
2
UNIT_DISC
10
5.0000000
20
8.1500000
41
0.1500000
42
0.1500000
43
0.1500000
50
0.0000000
0
INSERT
8
Bottom
2
UNIT_DISC
10
7.0000000
20
8.1500000
41
0.1500000
42
0.1500000
43
0.1500000
50
0.0000000
0
POLYLINE
8
Bottom
6
CONTINUOUS
66
1
70
0
40
0.1500000
41
0.1500000
0
VERTEX
8
Bottom
10
5.0000000
20
8.1500000
42
0.0000000
0
VERTEX
8
Bottom
10
7.0000000
20
8.1500000
42
0.0000000
0
SEQEND
0
INSERT
8
Bottom
2
UNIT_DISC
10
1.8500000
20
7.7303787
41
0.1500000
42
0.1500000
43
0.1500000
50
0.0000000
0
INSERT
8
Bottom
2
UNIT_DISC
10
1.8500000
20
7.6887091
41
0.1500000
42
0.1500000
43
0.1500000
50
0.0000000
0
POLYLINE
8
Bottom
6
CONTINUOUS
66
1
70
0
40
0.1500000
41
0.1500000
0
VERTEX
8
Bottom
10
1.8500000
20
7.7303787
42
0.0000000
0
VERTEX
8
Bottom
10
1.8500000
20
7.6887091
42
0.0000000
0
SEQEND
0
INSERT
8
Bottom
2
UNIT_DISC
10
1.8500000
20
7.6887091
41
0.1500000
42
0.1500000
43
0.1500000
50
0.0000000
0
INSERT
8
Bottom
2
UNIT_DISC
10
1.8500000
20
7.6731098
41
0.1500000
42
0.1500000
43
0.1500000
50
0.0000000
0
POLYLINE
8
Bottom
6
CONTINUOUS
66
1
70
0
40
0.1500000
41
0.1500000
0
VERTEX
8
Bottom
10
1.8500000
20
7.6887091
42
0.0000000
0
VERTEX
8
Bottom
10
1.8500000
20
7.6731098
42
0.0000000
0
SEQEND
0
INSERT
8
Bottom
2
UNIT_DISC
10
3.0000000
20
8.1500000
41
0.1500000
42
0.1500000
43
0.1500000
50
0.0000000
0
INSERT
8
Bottom
2
UNIT_DISC
10
5.0000000
20
8.1500000
41
0.1500000
42
0.1500000
43
0.1500000
50
0.0000000
0
POLYLINE
8
Bottom
6
CONTINUOUS
66
1
70
0
40
0.1500000
41
0.1500000
0
VERTEX
8
Bottom
10
3.0000000
20
8.1500000
42
0.0000000
0
VERTEX
8
Bottom
10
5.0000000
20
8.1500000
42
0.0000000
0
SEQEND
0
INSERT
8
Bottom
2
UNIT_DISC
10
7.0000000
20
8.1500000
41
0.1500000
42
0.1500000
43
0.1500000
50
0.0000000
0
INSERT
8
Bottom
2
UNIT_DISC
10
7.9000000
20
8.1500000
41
0.1500000
42
0.1500000
43
0.1500000
50
0.0000000
0
POLYLINE
8
Bottom
6
CONTINUOUS
66
1
70
0
40
0.1500000
41
0.1500000
0
VERTEX
8
Bottom
10
7.0000000
20
8.1500000
42
0.0000000
0
VERTEX
8
Bottom
10
7.9000000
20
8.1500000
42
0.0000000
0
SEQEND
0
INSERT
8
Bottom
2
UNIT_DISC
10
2.1000000
20
8.1500000
41
0.1500000
42
0.1500000
43
0.1500000
50
0.0000000
0
INSERT
8
Bottom
2
UNIT_DISC
10
2.6000000
20
8.1500000
41
0.1500000
42
0.1500000
43
0.1500000
50
0.0000000
0
POLYLINE
8
Bottom
6
CONTINUOUS
66
1
70
0
40
0.1500000
41
0.1500000
0
VERTEX
8
Bottom
10
2.1000000
20
8.1500000
42
0.0000000
0
VERTEX
8
Bottom
10
2.6000000
20
8.1500000
42
0.0000000
0
SEQEND
0
INSERT
8
Bottom
2
UNIT_DISC
10
2.6000000
20
8.1500000
41
0.1500000
42
0.1500000
43
0.1500000
50
0.0000000
0
INSERT
8
Bottom
2
UNIT_DISC
10
3.0000000
20
8.1500000
41
0.1500000
42
0.1500000
43
0.1500000
50
0.0000000
0
POLYLINE
8
Bottom
6
CONTINUOUS
66
1
70
0
40
0.1500000
41
0.1500000
0
VERTEX
8
Bottom
10
2.6000000
20
8.1500000
42
0.0000000
0
VERTEX
8
Bottom
10
3.0000000
20
8.1500000
42
0.0000000
0
SEQEND
0
INSERT
8
Bottom
2
UNIT_DISC
10
1.8500000
20
7.9000000
41
0.1500000
42
0.1500000
43
0.1500000
50
0.0000000
0
INSERT
8
Bottom
2
UNIT_DISC
10
1.8500000
20
7.7303787
41
0.1500000
42
0.1500000
43
0.1500000
50
0.0000000
0
POLYLINE
8
Bottom
6
CONTINUOUS
66
1
70
0
40
0.1500000
41
0.1500000
0
VERTEX
8
Bottom
10
1.8500000
20
7.9000000
42
0.0000000
0
VERTEX
8
Bottom
10
1.8500000
20
7.7303787
42
0.0000000
0
SEQEND
0
TEXT
8
Bottom
10
8.8250000
20
7.0250000
40
0.0800000
1
=>
50
0.0
7
STANDARD
71
0
72
0
0
INSERT
8
Bottom
2
UNIT_DISC
10
8.1500000
20
7.0000000
41
0.1500000
42
0.1500000
43
0.1500000
50
0.0000000
0
INSERT
8
Bottom
2
UNIT_DISC
10
8.1500000
20
5.0000000
41
0.1500000
42
0.1500000
43
0.1500000
50
0.0000000
0
POLYLINE
8
Bottom
6
CONTINUOUS
66
1
70
0
40
0.1500000
41
0.1500000
0
VERTEX
8
Bottom
10
8.1500000
20
7.0000000
42
0.0000000
0
VERTEX
8
Bottom
10
8.1500000
20
5.0000000
42
0.0000000
0
SEQEND
0
INSERT
8
Bottom
2
UNIT_DISC
10
8.1500000
20
5.0000000
41
0.1500000
42
0.1500000
43
0.1500000
50
0.0000000
0
INSERT
8
Bottom
2
UNIT_DISC
10
8.1500000
20
3.0000000
41
0.1500000
42
0.1500000
43
0.1500000
50
0.0000000
0
POLYLINE
8
Bottom
6
CONTINUOUS
66
1
70
0
40
0.1500000
41
0.1500000
0
VERTEX
8
Bottom
10
8.1500000
20
5.0000000
42
0.0000000
0
VERTEX
8
Bottom
10
8.1500000
20
3.0000000
42
0.0000000
0
SEQEND
0
INSERT
8
Bottom
2
UNIT_DISC
10
8.1500000
20
7.4000000
41
0.1500000
42
0.1500000
43
0.1500000
50
0.0000000
0
INSERT
8
Bottom
2
UNIT_DISC
10
8.1500000
20
7.0000000
41
0.1500000
42
0.1500000
43
0.1500000
50
0.0000000
0
POLYLINE
8
Bottom
6
CONTINUOUS
66
1
70
0
40
0.1500000
41
0.1500000
0
VERTEX
8
Bottom
10
8.1500000
20
7.4000000
42
0.0000000
0
VERTEX
8
Bottom
10
8.1500000
20
7.0000000
42
0.0000000
0
SEQEND
0
INSERT
8
Bottom
2
UNIT_DISC
10
8.1500000
20
7.9000000
41
0.1500000
42
0.1500000
43
0.1500000
50
0.0000000
0
INSERT
8
Bottom
2
UNIT_DISC
10
8.1500000
20
7.4000000
41
0.1500000
42
0.1500000
43
0.1500000
50
0.0000000
0
POLYLINE
8
Bottom
6
CONTINUOUS
66
1
70
0
40
0.1500000
41
0.1500000
0
VERTEX
8
Bottom
10
8.1500000
20
7.9000000
42
0.0000000
0
VERTEX
8
Bottom
10
8.1500000
20
7.4000000
42
0.0000000
0
SEQEND
0
INSERT
8
Bottom
2
UNIT_DISC
10
8.1500000
20
3.0000000
41
0.1500000
42
0.1500000
43
0.1500000
50
0.0000000
0
INSERT
8
Bottom
2
UNIT_DISC
10
8.1500000
20
2.1000000
41
0.1500000
42
0.1500000
43
0.1500000
50
0.0000000
0
POLYLINE
8
Bottom
6
CONTINUOUS
66
1
70
0
40
0.1500000
41
0.1500000
0
VERTEX
8
Bottom
10
8.1500000
20
3.0000000
42
0.0000000
0
VERTEX
8
Bottom
10
8.1500000
20
2.1000000
42
0.0000000
0
SEQEND
0
ENDSEC
0
EOF
